  0
SECTION
  2
HEADER
  9
$ACADVER
  1
AC1015
  9
$ACADMAINTVER
 70
    20
  9
$DWGCODEPAGE
  3
ANSI_1252
  9
$INSBASE
 10
0.0
 20
0.0
 30
0.0
  9
$EXTMIN
 10
21.51857477444043
 20
153.9203758817158
 30
0.0
  9
$EXTMAX
 10
23.79263458825678
 20
154.4691408817157
 30
0.0
  9
$LIMMIN
 10
0.0
 20
0.0
  9
$LIMMAX
 10
420.0
 20
297.0
  9
$ORTHOMODE
 70
     1
  9
$REGENMODE
 70
     1
  9
$FILLMODE
 70
     1
  9
$QTEXTMODE
 70
     0
  9
$MIRRTEXT
 70
     1
  9
$LTSCALE
 40
1.0
  9
$ATTMODE
 70
     1
  9
$TEXTSIZE
 40
2.5
  9
$TRACEWID
 40
1.0
  9
$TEXTSTYLE
  7
SANINDUSA
  9
$CLAYER
  8
cotas
  9
$CELTYPE
  6
ByLayer
  9
$CECOLOR
 62
   256
  9
$CELTSCALE
 40
1.0
  9
$DISPSILH
 70
     0
  9
$DIMSCALE
 40
1.0
  9
$DIMASZ
 40
2.0
  9
$DIMEXO
 40
1.0
  9
$DIMDLI
 40
1.0
  9
$DIMRND
 40
0.0
  9
$DIMDLE
 40
0.0
  9
$DIMEXE
 40
1.0
  9
$DIMTP
 40
0.0
  9
$DIMTM
 40
0.0
  9
$DIMTXT
 40
2.0
  9
$DIMCEN
 40
0.0
  9
$DIMTSZ
 40
0.0
  9
$DIMTOL
 70
     0
  9
$DIMLIM
 70
     0
  9
$DIMTIH
 70
     0
  9
$DIMTOH
 70
     0
  9
$DIMSE1
 70
     0
  9
$DIMSE2
 70
     0
  9
$DIMTAD
 70
     1
  9
$DIMZIN
 70
     8
  9
$DIMBLK
  1

  9
$DIMASO
 70
     1
  9
$DIMSHO
 70
     1
  9
$DIMPOST
  1

  9
$DIMAPOST
  1

  9
$DIMALT
 70
     0
  9
$DIMALTD
 70
     3
  9
$DIMALTF
 40
0.03937007874016
  9
$DIMLFAC
 40
1.0
  9
$DIMTOFL
 70
     1
  9
$DIMTVP
 40
0.0
  9
$DIMTIX
 70
     0
  9
$DIMSOXD
 70
     0
  9
$DIMSAH
 70
     0
  9
$DIMBLK1
  1

  9
$DIMBLK2
  1

  9
$DIMSTYLE
  2
SANINDUSA
  9
$DIMCLRD
 70
   256
  9
$DIMCLRE
 70
   256
  9
$DIMCLRT
 70
   256
  9
$DIMTFAC
 40
1.0
  9
$DIMGAP
 40
1.0
  9
$DIMJUST
 70
     0
  9
$DIMSD1
 70
     0
  9
$DIMSD2
 70
     0
  9
$DIMTOLJ
 70
     0
  9
$DIMTZIN
 70
     8
  9
$DIMALTZ
 70
     0
  9
$DIMALTTZ
 70
     0
  9
$DIMUPT
 70
     0
  9
$DIMDEC
 70
     1
  9
$DIMTDEC
 70
     1
  9
$DIMALTU
 70
     2
  9
$DIMALTTD
 70
     3
  9
$DIMTXSTY
  7
SANINDUSA
  9
$DIMAUNIT
 70
     0
  9
$DIMADEC
 70
     1
  9
$DIMALTRND
 40
0.0
  9
$DIMAZIN
 70
     0
  9
$DIMDSEP
 70
    44
  9
$DIMATFIT
 70
     3
  9
$DIMFRAC
 70
     0
  9
$DIMLDRBLK
  1

  9
$DIMLUNIT
 70
     2
  9
$DIMLWD
 70
    -1
  9
$DIMLWE
 70
    -1
  9
$DIMTMOVE
 70
     0
  9
$LUNITS
 70
     2
  9
$LUPREC
 70
     4
  9
$SKETCHINC
 40
1.0
  9
$FILLETRAD
 40
3.0
  9
$AUNITS
 70
     0
  9
$AUPREC
 70
     0
  9
$MENU
  1
.
  9
$ELEVATION
 40
0.0
  9
$PELEVATION
 40
0.0
  9
$THICKNESS
 40
0.0
  9
$LIMCHECK
 70
     0
  9
$CHAMFERA
 40
10.0
  9
$CHAMFERB
 40
10.0
  9
$CHAMFERC
 40
20.0
  9
$CHAMFERD
 40
0.0
  9
$SKPOLY
 70
     0
  9
$TDCREATE
 40
2453528.458075440
  9
$TDUCREATE
 40
2453528.416408773
  9
$TDUPDATE
 40
2453907.461003866
  9
$TDUUPDATE
 40
2453907.419337199
  9
$TDINDWG
 40
0.0065031713
  9
$TDUSRTIMER
 40
0.0065029977
  9
$USRTIMER
 70
     1
  9
$ANGBASE
 50
0.0
  9
$ANGDIR
 70
     0
  9
$PDMODE
 70
     0
  9
$PDSIZE
 40
0.0
  9
$PLINEWID
 40
0.0
  9
$SPLFRAME
 70
     0
  9
$SPLINETYPE
 70
     6
  9
$SPLINESEGS
 70
     8
  9
$HANDSEED
  5
F9B
  9
$SURFTAB1
 70
     6
  9
$SURFTAB2
 70
     6
  9
$SURFTYPE
 70
     6
  9
$SURFU
 70
     6
  9
$SURFV
 70
     6
  9
$UCSBASE
  2

  9
$UCSNAME
  2

  9
$UCSORG
 10
0.0
 20
0.0
 30
0.0
  9
$UCSXDIR
 10
1.0
 20
0.0
 30
0.0
  9
$UCSYDIR
 10
0.0
 20
1.0
 30
0.0
  9
$UCSORTHOREF
  2

  9
$UCSORTHOVIEW
 70
     0
  9
$UCSORGTOP
 10
0.0
 20
0.0
 30
0.0
  9
$UCSORGBOTTOM
 10
0.0
 20
0.0
 30
0.0
  9
$UCSORGLEFT
 10
0.0
 20
0.0
 30
0.0
  9
$UCSORGRIGHT
 10
0.0
 20
0.0
 30
0.0
  9
$UCSORGFRONT
 10
0.0
 20
0.0
 30
0.0
  9
$UCSORGBACK
 10
0.0
 20
0.0
 30
0.0
  9
$PUCSBASE
  2

  9
$PUCSNAME
  2

  9
$PUCSORG
 10
0.0
 20
0.0
 30
0.0
  9
$PUCSXDIR
 10
1.0
 20
0.0
 30
0.0
  9
$PUCSYDIR
 10
0.0
 20
1.0
 30
0.0
  9
$PUCSORTHOREF
  2

  9
$PUCSORTHOVIEW
 70
     0
  9
$PUCSORGTOP
 10
0.0
 20
0.0
 30
0.0
  9
$PUCSORGBOTTOM
 10
0.0
 20
0.0
 30
0.0
  9
$PUCSORGLEFT
 10
0.0
 20
0.0
 30
0.0
  9
$PUCSORGRIGHT
 10
0.0
 20
0.0
 30
0.0
  9
$PUCSORGFRONT
 10
0.0
 20
0.0
 30
0.0
  9
$PUCSORGBACK
 10
0.0
 20
0.0
 30
0.0
  9
$USERI1
 70
     0
  9
$USERI2
 70
     0
  9
$USERI3
 70
     0
  9
$USERI4
 70
     0
  9
$USERI5
 70
     0
  9
$USERR1
 40
0.0
  9
$USERR2
 40
0.0
  9
$USERR3
 40
0.0
  9
$USERR4
 40
0.0
  9
$USERR5
 40
0.0
  9
$WORLDVIEW
 70
     1
  9
$SHADEDGE
 70
     3
  9
$SHADEDIF
 70
    70
  9
$TILEMODE
 70
     1
  9
$MAXACTVP
 70
    64
  9
$PINSBASE
 10
0.0
 20
0.0
 30
0.0
  9
$PLIMCHECK
 70
     0
  9
$PEXTMIN
 10
1.000000000000000E+20
 20
1.000000000000000E+20
 30
1.000000000000000E+20
  9
$PEXTMAX
 10
-1.000000000000000E+20
 20
-1.000000000000000E+20
 30
-1.000000000000000E+20
  9
$PLIMMIN
 10
0.0
 20
0.0
  9
$PLIMMAX
 10
420.0
 20
297.0
  9
$UNITMODE
 70
     0
  9
$VISRETAIN
 70
     1
  9
$PLINEGEN
 70
     0
  9
$PSLTSCALE
 70
     1
  9
$TREEDEPTH
 70
  3020
  9
$CMLSTYLE
  2
Standard
  9
$CMLJUST
 70
     0
  9
$CMLSCALE
 40
20.0
  9
$PROXYGRAPHICS
 70
     1
  9
$MEASUREMENT
 70
     1
  9
$CELWEIGHT
370
    -1
  9
$ENDCAPS
280
     0
  9
$JOINSTYLE
280
     0
  9
$LWDISPLAY
290
     0
  9
$INSUNITS
 70
     4
  9
$HYPERLINKBASE
  1

  9
$STYLESHEET
  1
monochrome.ctb
  9
$XEDIT
290
     1
  9
$CEPSNTYPE
380
     0
  9
$PSTYLEMODE
290
     1
  9
$FINGERPRINTGUID
  2
{437B2326-8F81-43CC-9D43-4E1687DC83B1}
  9
$VERSIONGUID
  2
{732DEC9A-E549-449F-A0D2-DA718D180424}
  9
$EXTNAMES
290
     1
  9
$PSVPSCALE
 40
0.0
  9
$OLESTARTUP
290
     0
  0
ENDSEC
  0
SECTION
  2
CLASSES
  0
CLASS
  1
ACDBDICTIONARYWDFLT
  2
AcDbDictionaryWithDefault
  3
ObjectDBX Classes
 90
        0
280
     0
281
     0
  0
CLASS
  1
ACDBPLACEHOLDER
  2
AcDbPlaceHolder
  3
ObjectDBX Classes
 90
        0
280
     0
281
     0
  0
CLASS
  1
LAYOUT
  2
AcDbLayout
  3
ObjectDBX Classes
 90
        0
280
     0
281
     0
  0
CLASS
  1
DICTIONARYVAR
  2
AcDbDictionaryVar
  3
ObjectDBX Classes
 90
        0
280
     0
281
     0
  0
CLASS
  1
DIMASSOC
  2
AcDbDimAssoc
  3
"AcDbDimAssoc|Product Desc:     AcDim ARX App For Dimension|Company:          Autodesk, Inc.|WEB Address:      www.autodesk.com"
 90
    32768
280
     0
281
     0
  0
CLASS
  1
TABLESTYLE
  2
AcDbTableStyle
  3
ObjectDBX Classes
 90
     2047
280
     0
281
     0
  0
ENDSEC
  0
SECTION
  2
TABLES
  0
TABLE
  2
VPORT
  5
8
330
0
100
AcDbSymbolTable
 70
     2
  0
VPORT
  5
F93
330
8
100
AcDbSymbolTableRecord
100
AcDbViewportTableRecord
  2
*Active
 70
     0
 10
0.0
 20
0.0
 11
1.0
 21
1.0
 12
22.57415290171158
 22
154.2599412265423
 13
0.0
 23
0.0
 14
10.0
 24
10.0
 15
10.0
 25
10.0
 16
0.0
 26
0.0
 36
1.0
 17
0.0
 27
0.0
 37
0.0
 40
1.816366758900817
 41
1.593939393939393
 42
50.0
 43
0.0
 44
0.0
 50
0.0
 51
0.0
 71
     0
 72
   100
 73
     1
 74
     2
 75
     0
 76
     0
 77
     0
 78
     0
281
     0
 65
     1
110
0.0
120
0.0
130
0.0
111
1.0
121
0.0
131
0.0
112
0.0
122
1.0
132
0.0
 79
     0
146
0.0
  0
ENDTAB
  0
TABLE
  2
LTYPE
  5
5
330
0
100
AcDbSymbolTable
 70
     3
  0
LTYPE
  5
14
330
5
100
AcDbSymbolTableRecord
100
AcDbLinetypeTableRecord
  2
ByBlock
 70
     0
  3

 72
    65
 73
     0
 40
0.0
  0
LTYPE
  5
15
330
5
100
AcDbSymbolTableRecord
100
AcDbLinetypeTableRecord
  2
ByLayer
 70
     0
  3

 72
    65
 73
     0
 40
0.0
  0
LTYPE
  5
16
330
5
100
AcDbSymbolTableRecord
100
AcDbLinetypeTableRecord
  2
Continuous
 70
     0
  3
Solid line
 72
    65
 73
     0
 40
0.0
  0
LTYPE
  5
2D
330
5
100
AcDbSymbolTableRecord
100
AcDbLinetypeTableRecord
  2
DASHDOT
 70
     0
  3
Dash dot __ . __ . __ . __ . __ . __ . __ . __
 72
    65
 73
     4
 40
25.4
 49
12.7
 74
     0
 49
-6.349999999999999
 74
     0
 49
0.0
 74
     0
 49
-6.349999999999999
 74
     0
  0
LTYPE
  5
2E
330
5
100
AcDbSymbolTableRecord
100
AcDbLinetypeTableRecord
  2
HIDDEN
 70
     0
  3
Hidden __ __ __ __ __ __ __ __ __ __ __ __ __ _
 72
    65
 73
     2
 40
9.524999999999998
 49
6.349999999999999
 74
     0
 49
-3.174999999999999
 74
     0
  0
ENDTAB
  0
TABLE
  2
LAYER
  5
2
330
0
100
AcDbSymbolTable
 70
    17
  0
LAYER
  5
10
330
2
100
AcDbSymbolTableRecord
100
AcDbLayerTableRecord
  2
0
 70
     0
 62
     7
  6
Continuous
370
    -3
390
F
  0
LAYER
  5
2F
330
2
100
AcDbSymbolTableRecord
100
AcDbLayerTableRecord
  2
1
 70
     0
 62
     1
  6
Continuous
370
    -3
390
F
  0
LAYER
  5
30
330
2
100
AcDbSymbolTableRecord
100
AcDbLayerTableRecord
  2
2
 70
     0
 62
     2
  6
Continuous
370
    -3
390
F
  0
LAYER
  5
31
330
2
100
AcDbSymbolTableRecord
100
AcDbLayerTableRecord
  2
3
 70
     0
 62
     3
  6
Continuous
370
    -3
390
F
  0
LAYER
  5
32
330
2
100
AcDbSymbolTableRecord
100
AcDbLayerTableRecord
  2
4
 70
     0
 62
     4
  6
Continuous
370
    -3
390
F
  0
LAYER
  5
33
330
2
100
AcDbSymbolTableRecord
100
AcDbLayerTableRecord
  2
5
 70
     0
 62
     5
  6
Continuous
370
    -3
390
F
  0
LAYER
  5
34
330
2
100
AcDbSymbolTableRecord
100
AcDbLayerTableRecord
  2
6
 70
     0
 62
     6
  6
Continuous
370
    -3
390
F
  0
LAYER
  5
35
330
2
100
AcDbSymbolTableRecord
100
AcDbLayerTableRecord
  2
7
 70
     0
 62
     7
  6
Continuous
370
    -3
390
F
  0
LAYER
  5
36
330
2
100
AcDbSymbolTableRecord
100
AcDbLayerTableRecord
  2
cen
 70
     0
 62
     7
  6
DASHDOT
370
    -3
390
F
  0
LAYER
  5
37
330
2
100
AcDbSymbolTableRecord
100
AcDbLayerTableRecord
  2
hid
 70
     0
 62
     7
  6
HIDDEN
370
    -3
390
F
  0
LAYER
  5
5D6
330
2
100
AcDbSymbolTableRecord
100
AcDbLayerTableRecord
  2
hatch
 70
     0
 62
     9
  6
Continuous
370
    -3
390
F
  0
LAYER
  5
8AF
330
2
100
AcDbSymbolTableRecord
100
AcDbLayerTableRecord
  2
9
 70
     0
 62
     9
  6
Continuous
370
    -3
390
F
  0
LAYER
  5
8F8
330
2
100
AcDbSymbolTableRecord
100
AcDbLayerTableRecord
  2
leg fin
 70
     0
 62
     9
  6
Continuous
370
    -3
390
F
  0
LAYER
  5
91D
330
2
100
AcDbSymbolTableRecord
100
AcDbLayerTableRecord
  2
cotas
 70
     0
 62
     1
  6
Continuous
370
    -3
390
F
  0
LAYER
  5
92F
330
2
100
AcDbSymbolTableRecord
100
AcDbLayerTableRecord
  2
Defpoints
 70
     0
 62
     7
  6
Continuous
290
     0
370
    -3
390
F
  0
LAYER
  5
BA5
330
2
100
AcDbSymbolTableRecord
100
AcDbLayerTableRecord
  2
SANINDUSA
 70
     0
 62
     3
  6
Continuous
370
    -3
390
F
  0
LAYER
  5
BB0
330
2
100
AcDbSymbolTableRecord
100
AcDbLayerTableRecord
  2
BLOCKS
 70
     0
 62
     3
  6
Continuous
370
    -3
390
F
  0
ENDTAB
  0
TABLE
  2
STYLE
  5
3
330
0
100
AcDbSymbolTable
 70
     4
  0
STYLE
  5
11
330
3
100
AcDbSymbolTableRecord
100
AcDbTextStyleTableRecord
  2
Standard
 70
     0
 40
0.0
 41
1.0
 50
0.0
 71
     0
 42
2.5
  3
Avgardn.ttf
  4

1001
ACAD
1000
AvantGarde Bk BT
1071
       34
  0
STYLE
  5
2C
330
3
100
AcDbSymbolTableRecord
100
AcDbTextStyleTableRecord
  2

 70
     1
 40
0.0
 41
1.0
 50
0.0
 71
     0
 42
2.5
  3
ltypeshp.shx
  4

  0
STYLE
  5
91F
330
3
100
AcDbSymbolTableRecord
100
AcDbTextStyleTableRecord
  2
SANINDUSA
 70
     0
 40
0.0
 41
1.0
 50
0.0
 71
     0
 42
2.5
  3
verdana.TTF
  4

1001
ACAD
1000
Verdana
1071
       34
  0
STYLE
  5
BB1
330
3
100
AcDbSymbolTableRecord
100
AcDbTextStyleTableRecord
  2
cotas
 70
     0
 40
2.0
 41
0.8
 50
0.0
 71
     0
 42
4.0
  3
ISOCP.shx
  4

  0
ENDTAB
  0
TABLE
  2
VIEW
  5
6
330
0
100
AcDbSymbolTable
 70
     0
  0
ENDTAB
  0
TABLE
  2
UCS
  5
7
330
0
100
AcDbSymbolTable
 70
     0
  0
ENDTAB
  0
TABLE
  2
APPID
  5
9
330
0
100
AcDbSymbolTable
 70
     2
  0
APPID
  5
12
330
9
100
AcDbSymbolTableRecord
100
AcDbRegAppTableRecord
  2
ACAD
 70
     0
  0
APPID
  5
3A
330
9
100
AcDbSymbolTableRecord
100
AcDbRegAppTableRecord
  2
DCO15
 70
     0
  0
ENDTAB
  0
TABLE
  2
DIMSTYLE
  5
A
330
0
100
AcDbSymbolTable
 70
     3
100
AcDbDimStyleTable
 71
     1
340
921
  0
DIMSTYLE
105
45
330
A
100
AcDbSymbolTableRecord
100
AcDbDimStyleTableRecord
  2
STANDARD
 70
     0
289
     0
340
11
  0
DIMSTYLE
105
921
330
A
100
AcDbSymbolTableRecord
100
AcDbDimStyleTableRecord
  2
SANINDUSA
 70
     0
 41
2.0
 42
1.0
 43
1.0
 44
1.0
 73
     0
 74
     0
 77
     1
 78
     8
140
2.0
141
0.0
143
0.03937007874016
147
1.0
171
     3
172
     1
176
   256
177
   256
178
   256
179
     1
271
     1
272
     1
274
     3
278
    44
283
     0
284
     8
340
91F
371
    -1
372
    -1
  0
DIMSTYLE
105
BB2
330
A
100
AcDbSymbolTableRecord
100
AcDbDimStyleTableRecord
  2
ISO-25
 70
     0
 41
2.5
 42
0.625
 43
3.75
 44
1.25
 73
     0
 74
     0
 77
     1
 78
     8
140
2.5
141
2.5
143
0.03937007874016
147
0.625
171
     3
172
     1
271
     2
272
     2
274
     3
278
    44
283
     0
284
     8
340
11
  0
ENDTAB
  0
TABLE
  2
BLOCK_RECORD
  5
1
330
0
100
AcDbSymbolTable
 70
    21
  0
BLOCK_RECORD
  5
1F
330
1
100
AcDbSymbolTableRecord
100
AcDbBlockTableRecord
  2
*Model_Space
340
22
  0
BLOCK_RECORD
  5
1B
330
1
100
AcDbSymbolTableRecord
100
AcDbBlockTableRecord
  2
*Paper_Space
340
1E
  0
BLOCK_RECORD
  5
23
330
1
100
AcDbSymbolTableRecord
100
AcDbBlockTableRecord
  2
*Paper_Space0
340
26
  0
BLOCK_RECORD
  5
919
330
1
100
AcDbSymbolTableRecord
100
AcDbBlockTableRecord
  2
_DotSmall
340
0
  0
BLOCK_RECORD
  5
922
330
1
100
AcDbSymbolTableRecord
100
AcDbBlockTableRecord
  2
base para cotas
340
0
310
2800000020000000200000000100080000000000000400000000000000000000000000000000000000000000000080000080000000808000800000008000800080800000C0C0C000C0DCC000F0CAA6000020400000206000002080000020A0000020C0000020E00000400000004020000040400000406000004080000040A0
310
000040C0000040E00000600000006020000060400000606000006080000060A0000060C0000060E00000800000008020000080400000806000008080000080A0000080C0000080E00000A0000000A0200000A0400000A0600000A0800000A0A00000A0C00000A0E00000C0000000C0200000C0400000C0600000C0800000C0
310
A00000C0C00000C0E00000E0000000E0200000E0400000E0600000E0800000E0A00000E0C00000E0E00040000000400020004000400040006000400080004000A0004000C0004000E00040200000402020004020400040206000402080004020A0004020C0004020E000404000004040200040404000404060004040800040
310
40A0004040C0004040E00040600000406020004060400040606000406080004060A0004060C0004060E00040800000408020004080400040806000408080004080A0004080C0004080E00040A0000040A0200040A0400040A0600040A0800040A0A00040A0C00040A0E00040C0000040C0200040C0400040C0600040C08000
310
40C0A00040C0C00040C0E00040E0000040E0200040E0400040E0600040E0800040E0A00040E0C00040E0E00080000000800020008000400080006000800080008000A0008000C0008000E00080200000802020008020400080206000802080008020A0008020C0008020E00080400000804020008040400080406000804080
310
008040A0008040C0008040E00080600000806020008060400080606000806080008060A0008060C0008060E00080800000808020008080400080806000808080008080A0008080C0008080E00080A0000080A0200080A0400080A0600080A0800080A0A00080A0C00080A0E00080C0000080C0200080C0400080C0600080C0
310
800080C0A00080C0C00080C0E00080E0000080E0200080E0400080E0600080E0800080E0A00080E0C00080E0E000C0000000C0002000C0004000C0006000C0008000C000A000C000C000C000E000C0200000C0202000C0204000C0206000C0208000C020A000C020C000C020E000C0400000C0402000C0404000C0406000C0
310
408000C040A000C040C000C040E000C0600000C0602000C0604000C0606000C0608000C060A000C060C000C060E000C0800000C0802000C0804000C0806000C0808000C080A000C080C000C080E000C0A00000C0A02000C0A04000C0A06000C0A08000C0A0A000C0A0C000C0A0E000C0C00000C0C02000C0C04000C0C06000
310
C0C08000C0C0A000F0FBFF00A4A0A000808080000000FF0000FF000000FFFF00FF000000FF00FF00FFFF0000FFFFFF00A4A4A4A4A4A4A4A4A4A4A4A4A4A4A4A4A4A4A4A4A4A4A4A4A4A4A4A4A4A4A4A4A4A4A4A4A4A4A4A4A4A4A4A4A4A4A4A4A4A4A4A4A4A4A4A4A4A4A4A4A4A4A4A4A4A4A4A4A4A4A4A4A4A4A4A4A4A4A4
310
A4A4A4A4A4A4A4A4A4A4A4A4A4A4A4A4A4A4A4A4A4A4A4A4A4A4A4A4A4A4A4A4A4A4A4A4A4A4A4A4A4A4A4A4A4A4A4A4A4A4A4A4A4A4A4A4A4A4A4A4A4A4A4A4A4A4A4A4A4A4A4A4A4A4A4A4A4A4A4A4A4A4A4A4A4A4A4A4A4A4A4A4A4A4A4A4A4A4A4A4A4A4A4A4A4A4A4A4A4A4A4A4A4A4A4A4A4A4A4A4A4A4A4A4A4A4A4
310
A4A4A4A4A4A4A4A4A4A4A4A4A4A4A4A4A4A4A4A4A4A4A4A4A4A4A4A4A4A4A4A4A4A4A4A4A4A4A4A4A4A4A4A4A4A4A4A4A4A4A4A4A4A4A4A4A4A4A4A4A4A4A4A4A4A4A4A4A4A4A4A4A4A4A4A4A4A4A4A4A4A4A4A4A4A4A4A4A4A4A4A4A4A4A4A4A4A4A4A4A4A4A4A4A4A4A4A4A4A4A4A4A4A4A4A4A4A4A4A4A4A4A4A4A4A4A4
310
A4A4A4A4A4A4A4A4A4A4A4A4A4A4A4A4A4A4A4A4A4A4A4A4A4A4A4A4A4A4A4A4A4A4A4A4A4A4A4A4A4A4A4A4A4A4A4A4A4A4A4A4A4A4A4A4A4A4A4A4A4A4A4A4A4A4A4A4A4A4A4A4A4A4A4A4A4A4A4A4A4A4A4A4A4A4A4A4A4A4A4A4A4A4A4A4A4A4A4A4A4A4A4A4A4A4A4A4A4A4A4A4A4A4A4A4F9F9F9F9F9F9F9F9F9F9F9
310
F9F9F9F9F9F9F9F9F9F9F9F9F9F9F9F9F9F9F9A4A4F9F9F9F9F9F9F9F9F9F9F9F9F9F9F9F9F9F9F9F9F9F9F9F9F9F9F9F9F9F9A4A4F9F9F9F9F9F9F9F9F9F9F9F9F9F9F9F9F9F9F9F9F9F9F9F9F9F9F9F9F9F9A4A4F9A4A4A4A4A4A4A4A4A4A4A4A4A4A4A4A4A4A4A4A4A4A4A4A4A4A4A4A4F9A4A4A4A4A4A4A4A4A4A4A4A4
310
A4A4A4A4A4A4A4A4A4A4A4A4A4A4A4A4A4A4A4A4A4A4A4A4A4A4A4A4A4A4A4A4A4A4A4A4A4A4A4A4A4A4A4A4A4A4A4A4A4A4A4A4A4A4A4A4A4A4A4A4A4A4A4A4A4A4A4A4A4A4A4A4A4A4A4A4A4A4A4A4A4A4A4A4A4A4A4A4A4A4A4A4A4A4A4A4A4A4A4A4A4A4A4A4A4A4A4A4A4A4A4A4A4A4A4A4A4A4A4A4A4A4A4A4A4A4A4
310
A4A4A4A4A4A4A4A4A4A4A4A4A4A4A4A4A4A4A4A4A4A4A4A4A4A4A4A4A4A4A4A4A4A4A4A4A4A4A4A4A4A4A4A4A4A4A4A4A4A4A4A4A4A4A4A4A4A4A4A4A4A4A4A4A4A4A4A4A4A4A4A4A4A4A4A4A4A4A4A4A4A4A4A4A4A4A4A4A4A4A4A4A4A4A4A4A4A4A4A4A4A4A4A4A4A4A4A4A4A4A4A4A4A4A4A4A4A4A4A4A4A4A4A4A4A4A4
310
A4A4A4A4A4A4A4A4A4A4A4A4A4A4A4A4A4A4A4A4A4A4A4A4A4A4A4A4A4A4A4A4A4A4A4A4A4A4A4A4A4A4A4A4A4A4A4A4A4A4A4A4A4A4A4A4A4A4A4A4A4A4A4A4A4A4A4A4A4A4A4A4A4A4A4A4A4A4A4A4A4A4A4A4A4A4A4A4A4A4A4A4A4A4A4A4A4A4A4A4A4A4A4A4A4A4A4A4A4A4A4A4A4A4A4A4A4A4A4A4A4A4A4A4A4A4A4
310
A4A4A4A4A4A4A4A4A4A4A4A4A4A4A4A4A4A4A4A4A4A4A4A4A4A4A4A4A4A4A4A4A4A4A4A4A4A4A4A4A4A4A4A4A4A4A4A4A4A4A4A4A4A4A4A4
1001
ACAD
1000
DesignCenter Data
1002
{
1070
     1
1070
     4
1002
}
  0
BLOCK_RECORD
  5
AA8
330
1
100
AcDbSymbolTableRecord
100
AcDbBlockTableRecord
  2
_CLOSED
340
0
  0
BLOCK_RECORD
  5
BB3
330
1
100
AcDbSymbolTableRecord
100
AcDbBlockTableRecord
  2
104022PL
340
0
1001
ACAD
1000
DesignCenter Data
1002
{
1070
     1
1070
     4
1002
}
  0
BLOCK_RECORD
  5
BD2
330
1
100
AcDbSymbolTableRecord
100
AcDbBlockTableRecord
  2
104021PL
340
0
1001
ACAD
1000
DesignCenter Data
1002
{
1070
     1
1070
     4
1002
}
  0
BLOCK_RECORD
  5
BF0
330
1
100
AcDbSymbolTableRecord
100
AcDbBlockTableRecord
  2
104022AL
340
0
1001
ACAD
1000
DesignCenter Data
1002
{
1070
     1
1070
     4
1002
}
  0
BLOCK_RECORD
  5
C22
330
1
100
AcDbSymbolTableRecord
100
AcDbBlockTableRecord
  2
104022AF
340
0
1001
ACAD
1000
DesignCenter Data
1002
{
1070
     1
1070
     4
1002
}
  0
BLOCK_RECORD
  5
C46
330
1
100
AcDbSymbolTableRecord
100
AcDbBlockTableRecord
  2
104022CT
340
0
1001
ACAD
1000
DesignCenter Data
1002
{
1070
     1
1070
     4
1002
}
  0
BLOCK_RECORD
  5
D31
330
1
100
AcDbSymbolTableRecord
100
AcDbBlockTableRecord
  2
104410PL
340
0
1001
ACAD
1000
DesignCenter Data
1002
{
1070
     1
1070
     4
1002
}
  0
BLOCK_RECORD
  5
D48
330
1
100
AcDbSymbolTableRecord
100
AcDbBlockTableRecord
  2
104410AL
340
0
1001
ACAD
1000
DesignCenter Data
1002
{
1070
     1
1070
     4
1002
}
  0
BLOCK_RECORD
  5
D65
330
1
100
AcDbSymbolTableRecord
100
AcDbBlockTableRecord
  2
104410AF
340
0
1001
ACAD
1000
DesignCenter Data
1002
{
1070
     1
1070
     4
1002
}
  0
BLOCK_RECORD
  5
D76
330
1
100
AcDbSymbolTableRecord
100
AcDbBlockTableRecord
  2
104410CT
340
0
1001
ACAD
1000
DesignCenter Data
1002
{
1070
     1
1070
     4
1002
}
  0
BLOCK_RECORD
  5
DD7
330
1
100
AcDbSymbolTableRecord
100
AcDbBlockTableRecord
  2
104320PL
340
0
1001
ACAD
1000
DesignCenter Data
1002
{
1070
     1
1070
     4
1002
}
  0
BLOCK_RECORD
  5
E09
330
1
100
AcDbSymbolTableRecord
100
AcDbBlockTableRecord
  2
104320AL
340
0
1001
ACAD
1000
DesignCenter Data
1002
{
1070
     1
1070
     4
1002
}
  0
BLOCK_RECORD
  5
E23
330
1
100
AcDbSymbolTableRecord
100
AcDbBlockTableRecord
  2
104320AF
340
0
1001
ACAD
1000
DesignCenter Data
1002
{
1070
     1
1070
     4
1002
}
  0
BLOCK_RECORD
  5
E3D
330
1
100
AcDbSymbolTableRecord
100
AcDbBlockTableRecord
  2
104320CT
340
0
1001
ACAD
1000
DesignCenter Data
1002
{
1070
     1
1070
     4
1002
}
  0
BLOCK_RECORD
  5
EB6
330
1
100
AcDbSymbolTableRecord
100
AcDbBlockTableRecord
  2
104500PL
340
0
102
{BLKREFS
331
EDE
102
}
1001
ACAD
1000
DesignCenter Data
1002
{
1070
     1
1070
     4
1002
}
  0
BLOCK_RECORD
  5
EDF
330
1
100
AcDbSymbolTableRecord
100
AcDbBlockTableRecord
  2
104500AL
340
0
102
{BLKREFS
331
EF0
102
}
1001
ACAD
1000
DesignCenter Data
1002
{
1070
     1
1070
     4
1002
}
  0
BLOCK_RECORD
  5
EF1
330
1
100
AcDbSymbolTableRecord
100
AcDbBlockTableRecord
  2
104500AF
340
0
102
{BLKREFS
331
F28
102
}
1001
ACAD
1000
DesignCenter Data
1002
{
1070
     1
1070
     4
1002
}
  0
BLOCK_RECORD
  5
F29
330
1
100
AcDbSymbolTableRecord
100
AcDbBlockTableRecord
  2
104500CT
340
0
102
{BLKREFS
331
F81
102
}
1001
ACAD
1000
DesignCenter Data
1002
{
1070
     1
1070
     4
1002
}
  0
ENDTAB
  0
ENDSEC
  0
SECTION
  2
BLOCKS
  0
BLOCK
  5
20
330
1F
100
AcDbEntity
  8
0
100
AcDbBlockBegin
  2
*Model_Space
 70
     0
 10
0.0
 20
0.0
 30
0.0
  3
*Model_Space
  1

  0
ENDBLK
  5
21
330
1F
100
AcDbEntity
  8
0
100
AcDbBlockEnd
  0
BLOCK
  5
1C
330
1B
100
AcDbEntity
 67
     1
  8
0
100
AcDbBlockBegin
  2
*Paper_Space
 70
     0
 10
0.0
 20
0.0
 30
0.0
  3
*Paper_Space
  1

  0
ENDBLK
  5
1D
330
1B
100
AcDbEntity
 67
     1
  8
0
100
AcDbBlockEnd
  0
BLOCK
  5
24
330
23
100
AcDbEntity
 67
     1
  8
0
100
AcDbBlockBegin
  2
*Paper_Space0
 70
     0
 10
0.0
 20
0.0
 30
0.0
  3
*Paper_Space0
  1

  0
ENDBLK
  5
25
330
23
100
AcDbEntity
 67
     1
  8
0
100
AcDbBlockEnd
  0
BLOCK
  5
91B
330
919
100
AcDbEntity
  8
0
100
AcDbBlockBegin
  2
_DotSmall
 70
     0
 10
0.0
 20
0.0
 30
0.0
  3
_DotSmall
  1

  0
LWPOLYLINE
  5
91A
330
919
100
AcDbEntity
  8
0
  6
ByBlock
 62
     0
100
AcDbPolyline
 90
        2
 70
     1
 43
0.5
 10
-0.0625
 20
0.0
 42
1.0
 10
0.0625
 20
0.0
 42
1.0
  0
ENDBLK
  5
91C
330
919
100
AcDbEntity
  8
0
100
AcDbBlockEnd
  0
BLOCK
  5
92A
330
922
100
AcDbEntity
  8
0
100
AcDbBlockBegin
  2
base para cotas
 70
     0
 10
0.0
 20
0.0
 30
0.0
  3
base para cotas
  1

  0
LINE
  5
B36
330
922
100
AcDbEntity
  8
cotas
100
AcDbLine
 10
0.0
 20
-30.0
 30
0.0
 11
327.1260136525398
 21
-30.0
 31
0.0
  0
LINE
  5
B37
330
922
100
AcDbEntity
  8
cotas
100
AcDbLine
 10
0.0
 20
-25.0
 30
0.0
 11
327.1260136525398
 21
-25.0
 31
0.0
  0
LINE
  5
B38
330
922
100
AcDbEntity
  8
cotas
100
AcDbLine
 10
0.0
 20
-20.0
 30
0.0
 11
327.1260136525398
 21
-20.0
 31
0.0
  0
LINE
  5
B39
330
922
100
AcDbEntity
  8
cotas
100
AcDbLine
 10
0.0
 20
-15.0
 30
0.0
 11
327.1260136525398
 21
-15.0
 31
0.0
  0
LINE
  5
B3A
330
922
100
AcDbEntity
  8
cotas
100
AcDbLine
 10
0.0
 20
-10.0
 30
0.0
 11
327.1260136525398
 21
-10.0
 31
0.0
  0
LINE
  5
B3B
330
922
100
AcDbEntity
  8
cotas
100
AcDbLine
 10
0.0
 20
0.0
 30
0.0
 11
0.0
 21
-30.0
 31
0.0
  0
LINE
  5
B3C
330
922
100
AcDbEntity
  8
cotas
100
AcDbLine
 10
327.1260136525398
 20
-30.0
 30
0.0
 11
327.1260136525398
 21
0.0
 31
0.0
  0
ENDBLK
  5
92B
330
922
100
AcDbEntity
  8
0
100
AcDbBlockEnd
  0
BLOCK
  5
AAD
330
AA8
100
AcDbEntity
  8
0
100
AcDbBlockBegin
  2
_CLOSED
 70
     0
 10
0.0
 20
0.0
 30
0.0
  3
_CLOSED
  1

  0
LINE
  5
AA9
330
AA8
100
AcDbEntity
  8
0
100
AcDbLine
 10
-1.0
 20
0.166667
 30
0.0
 11
0.0
 21
0.0
 31
0.0
  0
LINE
  5
AAA
330
AA8
100
AcDbEntity
  8
0
100
AcDbLine
 10
0.0
 20
0.0
 30
0.0
 11
-1.0
 21
-0.166667
 31
0.0
  0
LINE
  5
AAB
330
AA8
100
AcDbEntity
  8
0
100
AcDbLine
 10
-1.0
 20
0.166667
 30
0.0
 11
-1.0
 21
-0.166667
 31
0.0
  0
LINE
  5
AAC
330
AA8
100
AcDbEntity
  8
0
100
AcDbLine
 10
0.0
 20
0.0
 30
0.0
 11
-1.0
 21
0.0
 31
0.0
  0
ENDBLK
  5
AAE
330
AA8
100
AcDbEntity
  8
0
100
AcDbBlockEnd
  0
BLOCK
  5
BCE
330
BB3
100
AcDbEntity
  8
0
100
AcDbBlockBegin
  2
104022PL
 70
     0
 10
0.0
 20
0.0
 30
0.0
  3
104022PL
  1

  0
ARC
  5
BB4
330
BB3
100
AcDbEntity
  8
BLOCKS
100
AcDbCircle
 10
0.1725000000000136
 20
-0.1233160000000453
 30
0.0
 40
0.01
100
AcDbArc
 50
298.1491100000008
 51
0.0
  0
LINE
  5
BB5
330
BB3
100
AcDbEntity
  8
BLOCKS
100
AcDbLine
 10
0.1825000000000045
 20
-0.0099999999999909
 30
0.0
 11
0.1825000000000045
 21
-0.1233160000000453
 31
0.0
  0
ARC
  5
BB6
330
BB3
100
AcDbEntity
  8
BLOCKS
100
AcDbCircle
 10
-0.1725000000000136
 20
-0.0099999999999909
 30
0.0
 40
0.01
100
AcDbArc
 50
90.0
 51
180.0
  0
LINE
  5
BB7
330
BB3
100
AcDbEntity
  8
BLOCKS
100
AcDbLine
 10
-0.1725000000000136
 20
0.0
 30
0.0
 11
0.1725000000000136
 21
0.0
 31
0.0
  0
CIRCLE
  5
BB8
330
BB3
100
AcDbEntity
  8
BLOCKS
100
AcDbCircle
 10
0.091293999999948
 20
-0.2508380000000443
 30
0.0
 40
0.007203
  0
LINE
  5
BB9
330
BB3
100
AcDbEntity
  8
BLOCKS
100
AcDbLine
 10
0.0793830000000071
 20
-0.1677329999999984
 30
0.0
 11
0.1147760000000062
 21
-0.2259649999999738
 31
0.0
  0
CIRCLE
  5
BBA
330
BB3
100
AcDbEntity
  8
BLOCKS
100
AcDbCircle
 10
-0.0904450000000452
 20
-0.2508380000000443
 30
0.0
 40
0.007203
  0
LINE
  5
BBB
330
BB3
100
AcDbEntity
  8
BLOCKS
100
AcDbLine
 10
-0.0793830000000071
 20
-0.1677329999999984
 30
0.0
 11
-0.1147760000000062
 21
-0.2259649999999738
 31
0.0
  0
ARC
  5
BBC
330
BB3
100
AcDbEntity
  8
BLOCKS
100
AcDbCircle
 10
0.0471109999999726
 20
-0.4326240000000331
 30
0.0
 40
0.01
100
AcDbArc
 50
19.57349800000054
 51
90.0
  0
LINE
  5
BBD
330
BB3
100
AcDbEntity
  8
BLOCKS
100
AcDbLine
 10
0.1253219999999828
 20
-0.4282660000000084
 30
0.0
 11
0.1248470000000452
 21
-0.4782659999999629
 31
0.0
  0
ARC
  5
BBE
330
BB3
100
AcDbEntity
  8
BLOCKS
100
AcDbCircle
 10
-0.0471109999999726
 20
-0.4326240000000331
 30
0.0
 40
0.01
100
AcDbArc
 50
90.0
 51
160.4265019999994
  0
LINE
  5
BBF
330
BB3
100
AcDbEntity
  8
BLOCKS
100
AcDbLine
 10
-0.1248970000000327
 20
-0.4282660000000084
 30
0.0
 11
-0.1244219999999814
 21
-0.4782659999999629
 31
0.0
  0
ARC
  5
BC0
330
BB3
100
AcDbEntity
  8
BLOCKS
100
AcDbCircle
 10
0.0
 20
-0.4493750000000324
 30
0.0
 40
0.06
100
AcDbArc
 50
160.4265019999994
 51
19.57349800000054
  0
LINE
  5
BC1
330
BB3
100
AcDbEntity
  8
BLOCKS
100
AcDbLine
 10
0.0471109999999726
 20
-0.4226240000000422
 30
0.0
 11
-0.0471109999999726
 21
-0.4226240000000422
 31
0.0
  0
ARC
  5
BC2
330
BB3
100
AcDbEntity
  8
BLOCKS
100
AcDbCircle
 10
0.0002120000000332
 20
-0.4321559999999641
 30
0.0
 40
0.12517
100
AcDbArc
 50
1.780768000000537
 51
178.2192319999994
  0
LINE
  5
BC3
330
BB3
100
AcDbEntity
  8
BLOCKS
100
AcDbLine
 10
0.1749999999999545
 20
-0.4897590000000497
 30
0.0
 11
0.1749999999999545
 21
-0.1333100000000513
 31
0.0
  0
ARC
  5
BC4
330
BB3
100
AcDbEntity
  8
BLOCKS
100
AcDbCircle
 10
-0.1725000000000136
 20
-0.1221229999999878
 30
0.0
 40
0.01
100
AcDbArc
 50
180.0
 51
241.4547369999985
  0
LINE
  5
BC5
330
BB3
100
AcDbEntity
  8
BLOCKS
100
AcDbLine
 10
-0.1749999999999545
 20
-0.4897590000000497
 30
0.0
 11
-0.1749999999999545
 21
-0.1321369999999433
 31
0.0
  0
LINE
  5
BC6
330
BB3
100
AcDbEntity
  8
BLOCKS
100
AcDbLine
 10
0.1749999999999545
 20
-0.2259649999999738
 30
0.0
 11
-0.1749999999999545
 21
-0.2259649999999738
 31
0.0
  0
CIRCLE
  5
BC7
330
BB3
100
AcDbEntity
  8
BLOCKS
100
AcDbCircle
 10
0.0
 20
-0.088141999999948
 30
0.0
 40
0.06
  0
LINE
  5
BC8
330
BB3
100
AcDbEntity
  8
BLOCKS
100
AcDbLine
 10
-0.1825000000000045
 20
-0.0099999999999909
 30
0.0
 11
-0.1825000000000045
 21
-0.1221229999999878
 31
0.0
  0
CIRCLE
  5
BC9
330
BB3
100
AcDbEntity
  8
BLOCKS
100
AcDbCircle
 10
0.0
 20
-0.088141999999948
 30
0.0
 40
0.03
  0
ARC
  5
BCA
330
BB3
100
AcDbEntity
  8
BLOCKS
100
AcDbCircle
 10
0.0
 20
-0.4900020000000046
 30
0.0
 40
0.175
100
AcDbArc
 50
179.9203320000021
 51
0.0796679999978939
  0
ARC
  5
BCB
330
BB3
100
AcDbEntity
  8
BLOCKS
100
AcDbCircle
 10
0.0002120000000332
 20
-0.4898299999999841
 30
0.0
 40
0.12517
100
AcDbArc
 50
174.6989770000022
 51
5.301022999997709
  0
ARC
  5
BCC
330
BB3
100
AcDbEntity
  8
BLOCKS
100
AcDbCircle
 10
0.0011050000000523
 20
0.1970169999999598
 30
0.0
 40
0.373303
100
AcDbArc
 50
241.4547369999985
 51
298.1491100000008
  0
ARC
  5
BCD
330
BB3
100
AcDbEntity
  8
BLOCKS
100
AcDbCircle
 10
0.1725000000000136
 20
-0.0099999999999909
 30
0.0
 40
0.01
100
AcDbArc
 50
0.0
 51
90.0
  0
ENDBLK
  5
BCF
330
BB3
100
AcDbEntity
  8
0
100
AcDbBlockEnd
  0
BLOCK
  5
BED
330
BD2
100
AcDbEntity
  8
0
100
AcDbBlockBegin
  2
104021PL
 70
     0
 10
0.0
 20
0.0
 30
0.0
  3
104021PL
  1

  0
ARC
  5
BD3
330
BD2
100
AcDbEntity
  8
BLOCKS
100
AcDbCircle
 10
0.1725000000000136
 20
-0.1233160000000453
 30
0.0
 40
0.01
100
AcDbArc
 50
298.1491100000008
 51
0.0
  0
LINE
  5
BD4
330
BD2
100
AcDbEntity
  8
BLOCKS
100
AcDbLine
 10
0.1825000000000045
 20
-0.0099999999999909
 30
0.0
 11
0.1825000000000045
 21
-0.1233160000000453
 31
0.0
  0
ARC
  5
BD5
330
BD2
100
AcDbEntity
  8
BLOCKS
100
AcDbCircle
 10
-0.1725000000000136
 20
-0.0099999999999909
 30
0.0
 40
0.01
100
AcDbArc
 50
90.0
 51
180.0
  0
LINE
  5
BD6
330
BD2
100
AcDbEntity
  8
BLOCKS
100
AcDbLine
 10
-0.1725000000000136
 20
0.0
 30
0.0
 11
0.1725000000000136
 21
0.0
 31
0.0
  0
CIRCLE
  5
BD7
330
BD2
100
AcDbEntity
  8
BLOCKS
100
AcDbCircle
 10
0.091293999999948
 20
-0.2508380000000443
 30
0.0
 40
0.007203
  0
LINE
  5
BD8
330
BD2
100
AcDbEntity
  8
BLOCKS
100
AcDbLine
 10
0.0793830000000071
 20
-0.1677329999999984
 30
0.0
 11
0.1147760000000062
 21
-0.2259649999999738
 31
0.0
  0
CIRCLE
  5
BD9
330
BD2
100
AcDbEntity
  8
BLOCKS
100
AcDbCircle
 10
-0.0904450000000452
 20
-0.2508380000000443
 30
0.0
 40
0.007203
  0
LINE
  5
BDA
330
BD2
100
AcDbEntity
  8
BLOCKS
100
AcDbLine
 10
-0.0793830000000071
 20
-0.1677329999999984
 30
0.0
 11
-0.1147760000000062
 21
-0.2259649999999738
 31
0.0
  0
ARC
  5
BDB
330
BD2
100
AcDbEntity
  8
BLOCKS
100
AcDbCircle
 10
0.0471109999999726
 20
-0.4326240000000331
 30
0.0
 40
0.01
100
AcDbArc
 50
19.57349800000054
 51
90.0
  0
LINE
  5
BDC
330
BD2
100
AcDbEntity
  8
BLOCKS
100
AcDbLine
 10
0.1253219999999828
 20
-0.4282660000000084
 30
0.0
 11
0.1248470000000452
 21
-0.4782659999999629
 31
0.0
  0
ARC
  5
BDD
330
BD2
100
AcDbEntity
  8
BLOCKS
100
AcDbCircle
 10
-0.0471109999999726
 20
-0.4326240000000331
 30
0.0
 40
0.01
100
AcDbArc
 50
90.0
 51
160.4265019999994
  0
LINE
  5
BDE
330
BD2
100
AcDbEntity
  8
BLOCKS
100
AcDbLine
 10
-0.1248970000000327
 20
-0.4282660000000084
 30
0.0
 11
-0.1244219999999814
 21
-0.4782659999999629
 31
0.0
  0
ARC
  5
BDF
330
BD2
100
AcDbEntity
  8
BLOCKS
100
AcDbCircle
 10
0.0
 20
-0.4493750000000324
 30
0.0
 40
0.06
100
AcDbArc
 50
160.4265019999994
 51
19.57349800000054
  0
LINE
  5
BE0
330
BD2
100
AcDbEntity
  8
BLOCKS
100
AcDbLine
 10
0.0471109999999726
 20
-0.4226240000000422
 30
0.0
 11
-0.0471109999999726
 21
-0.4226240000000422
 31
0.0
  0
ARC
  5
BE1
330
BD2
100
AcDbEntity
  8
BLOCKS
100
AcDbCircle
 10
0.0002120000000332
 20
-0.4321559999999641
 30
0.0
 40
0.12517
100
AcDbArc
 50
1.780768000000537
 51
178.2192319999994
  0
LINE
  5
BE2
330
BD2
100
AcDbEntity
  8
BLOCKS
100
AcDbLine
 10
0.1749999999999545
 20
-0.4897590000000497
 30
0.0
 11
0.1749999999999545
 21
-0.1333100000000513
 31
0.0
  0
ARC
  5
BE3
330
BD2
100
AcDbEntity
  8
BLOCKS
100
AcDbCircle
 10
-0.1725000000000136
 20
-0.1221229999999878
 30
0.0
 40
0.01
100
AcDbArc
 50
180.0
 51
241.4547369999985
  0
LINE
  5
BE4
330
BD2
100
AcDbEntity
  8
BLOCKS
100
AcDbLine
 10
-0.1749999999999545
 20
-0.4897590000000497
 30
0.0
 11
-0.1749999999999545
 21
-0.1321369999999433
 31
0.0
  0
LINE
  5
BE5
330
BD2
100
AcDbEntity
  8
BLOCKS
100
AcDbLine
 10
0.1749999999999545
 20
-0.2259649999999738
 30
0.0
 11
-0.1749999999999545
 21
-0.2259649999999738
 31
0.0
  0
CIRCLE
  5
BE6
330
BD2
100
AcDbEntity
  8
BLOCKS
100
AcDbCircle
 10
0.0
 20
-0.088141999999948
 30
0.0
 40
0.06
  0
LINE
  5
BE7
330
BD2
100
AcDbEntity
  8
BLOCKS
100
AcDbLine
 10
-0.1825000000000045
 20
-0.0099999999999909
 30
0.0
 11
-0.1825000000000045
 21
-0.1221229999999878
 31
0.0
  0
CIRCLE
  5
BE8
330
BD2
100
AcDbEntity
  8
BLOCKS
100
AcDbCircle
 10
0.0
 20
-0.088141999999948
 30
0.0
 40
0.03
  0
ARC
  5
BE9
330
BD2
100
AcDbEntity
  8
BLOCKS
100
AcDbCircle
 10
0.0
 20
-0.4900020000000046
 30
0.0
 40
0.175
100
AcDbArc
 50
179.9203320000021
 51
0.0796679999978939
  0
ARC
  5
BEA
330
BD2
100
AcDbEntity
  8
BLOCKS
100
AcDbCircle
 10
0.0002120000000332
 20
-0.4898299999999841
 30
0.0
 40
0.12517
100
AcDbArc
 50
174.6989770000022
 51
5.301022999997709
  0
ARC
  5
BEB
330
BD2
100
AcDbEntity
  8
BLOCKS
100
AcDbCircle
 10
0.0011050000000523
 20
0.1970169999999598
 30
0.0
 40
0.373303
100
AcDbArc
 50
241.4547369999985
 51
298.1491100000008
  0
ARC
  5
BEC
330
BD2
100
AcDbEntity
  8
BLOCKS
100
AcDbCircle
 10
0.1725000000000136
 20
-0.0099999999999909
 30
0.0
 40
0.01
100
AcDbArc
 50
0.0
 51
90.0
  0
ENDBLK
  5
BEE
330
BD2
100
AcDbEntity
  8
0
100
AcDbBlockEnd
  0
BLOCK
  5
C1F
330
BF0
100
AcDbEntity
  8
0
100
AcDbBlockBegin
  2
104022AL
 70
     0
 10
0.0
 20
0.0
 30
0.0
  3
104022AL
  1

  0
ARC
  5
BF1
330
BF0
100
AcDbEntity
  8
BLOCKS
100
AcDbCircle
 10
0.1662850000000162
 20
0.825000000000046
 30
0.0
 40
0.01
100
AcDbArc
 50
0.0
 51
90.0
  0
ARC
  5
BF2
330
BF0
100
AcDbEntity
  8
BLOCKS
100
AcDbCircle
 10
0.6436179999999468
 20
0.3818850000000111
 30
0.0
 40
0.021274
100
AcDbArc
 50
318.0731159999996
 51
53.70030199999851
  0
ARC
  5
BF3
330
BF0
100
AcDbEntity
  8
BLOCKS
100
AcDbCircle
 10
0.6532529999999497
 20
0.3949999999999818
 30
0.0
 40
0.005
100
AcDbArc
 50
53.70030199999851
 51
90.0
  0
ARC
  5
BF4
330
BF0
100
AcDbEntity
  8
BLOCKS
100
AcDbCircle
 10
0.2209649999999783
 20
0.4288739999999507
 30
0.0
 40
0.005
100
AcDbArc
 50
0.0
 51
90.0
  0
ARC
  5
BF5
330
BF0
100
AcDbEntity
  8
BLOCKS
100
AcDbCircle
 10
0.155285000000049
 20
0.4358740000000126
 30
0.0
 40
0.001
100
AcDbArc
 50
0.0
 51
90.0
  0
LINE
  5
BF6
330
BF0
100
AcDbEntity
  8
BLOCKS
100
AcDbLine
 10
0.1762850000000071
 20
0.4438740000000508
 30
0.0
 11
0.1762850000000071
 21
0.4338739999999462
 31
0.0
  0
LINE
  5
BF7
330
BF0
100
AcDbEntity
  8
BLOCKS
100
AcDbLine
 10
0.2209649999999783
 20
0.4338739999999462
 30
0.0
 11
0.1762850000000071
 21
0.4338739999999462
 31
0.0
  0
ARC
  5
BF8
330
BF0
100
AcDbEntity
  8
BLOCKS
100
AcDbCircle
 10
0.205964999999992
 20
0.4038739999999735
 30
0.0
 40
0.01
100
AcDbArc
 50
0.0
 51
90.0
  0
ARC
  5
BF9
330
BF0
100
AcDbEntity
  8
BLOCKS
100
AcDbCircle
 10
0.2259649999999738
 20
0.3999999999999772
 30
0.0
 40
0.01
100
AcDbArc
 50
180.0
 51
270.0
  0
LINE
  5
BFA
330
BF0
100
AcDbEntity
  8
BLOCKS
100
AcDbLine
 10
0.2159649999999829
 20
0.4038739999999735
 30
0.0
 11
0.2159649999999829
 21
0.3999999999999772
 31
0.0
  0
ARC
  5
BFB
330
BF0
100
AcDbEntity
  8
BLOCKS
100
AcDbCircle
 10
0.2309649999999692
 20
0.4049999999999728
 30
0.0
 40
0.005
100
AcDbArc
 50
180.0
 51
270.0
  0
ARC
  5
BFC
330
BF0
100
AcDbEntity
  8
BLOCKS
100
AcDbCircle
 10
0.1662850000000162
 20
0.4238739999999553
 30
0.0
 40
0.01
100
AcDbArc
 50
180.0
 51
270.0
  0
ARC
  5
BFD
330
BF0
100
AcDbEntity
  8
BLOCKS
100
AcDbCircle
 10
0.0597830000000386
 20
0.3598030000000563
 30
0.0
 40
0.005
100
AcDbArc
 50
90.0
 51
183.8998890000029
  0
LINE
  5
BFE
330
BF0
100
AcDbEntity
  8
BLOCKS
100
AcDbLine
 10
0.205964999999992
 20
0.4138739999999644
 30
0.0
 11
0.1662850000000162
 21
0.4138739999999644
 31
0.0
  0
LINE
  5
BFF
330
BF0
100
AcDbEntity
  8
BLOCKS
100
AcDbLine
 10
0.2259649999999738
 20
0.4288739999999507
 30
0.0
 11
0.2259649999999738
 21
0.4049999999999728
 31
0.0
  0
LINE
  5
C00
330
BF0
100
AcDbEntity
  8
BLOCKS
100
AcDbLine
 10
0.1562850000000253
 20
0.4358740000000126
 30
0.0
 11
0.1562850000000253
 21
0.4238739999999553
 31
0.0
  0
LINE
  5
C01
330
BF0
100
AcDbEntity
  8
BLOCKS
100
AcDbLine
 10
0.6532529999999497
 20
0.3999999999999772
 30
0.0
 11
0.2309649999999692
 21
0.3999999999999772
 31
0.0
  0
LINE
  5
C02
330
BF0
100
AcDbEntity
  8
BLOCKS
100
AcDbLine
 10
0.4312869999999976
 20
0.3648030000000517
 30
0.0
 11
0.0597830000000386
 21
0.3648030000000517
 31
0.0
  0
ARC
  5
C03
330
BF0
100
AcDbEntity
  8
BLOCKS
100
AcDbCircle
 10
0.4992640000000393
 20
0.3958999999999833
 30
0.0
 40
0.219776
100
AcDbArc
 50
188.1344880000004
 51
236.9694860000027
  0
LINE
  5
C04
330
BF0
100
AcDbEntity
  8
BLOCKS
100
AcDbLine
 10
0.1762850000000071
 20
0.825000000000046
 30
0.0
 11
0.1762850000000071
 21
0.4438740000000508
 31
0.0
  0
ARC
  5
C05
330
BF0
100
AcDbEntity
  8
BLOCKS
100
AcDbCircle
 10
0.0099999999999909
 20
0.825000000000046
 30
0.0
 40
0.01
100
AcDbArc
 50
90.0
 51
180.0
  0
ARC
  5
C06
330
BF0
100
AcDbEntity
  8
BLOCKS
100
AcDbCircle
 10
0.0099999999999909
 20
0.4368739999999889
 30
0.0
 40
0.01
100
AcDbArc
 50
105.5109510000026
 51
180.0
  0
LINE
  5
C07
330
BF0
100
AcDbEntity
  8
BLOCKS
100
AcDbLine
 10
0.0
 20
0.4368739999999889
 30
0.0
 11
0.0
 21
0.4366690000000517
 31
0.0
  0
LINE
  5
C08
330
BF0
100
AcDbEntity
  8
BLOCKS
100
AcDbLine
 10
0.0
 20
0.4368739999999889
 30
0.0
 11
0.0
 21
0.4368090000000393
 31
0.0
  0
ARC
  5
C09
330
BF0
100
AcDbEntity
  8
BLOCKS
100
AcDbCircle
 10
0.0067910000000211
 20
0.4484370000000127
 30
0.0
 40
0.002
100
AcDbArc
 50
285.5109510000026
 51
74.48904899999734
  0
ARC
  5
C0A
330
BF0
100
AcDbEntity
  8
BLOCKS
100
AcDbCircle
 10
0.0099999999999909
 20
0.4600000000000364
 30
0.0
 40
0.01
100
AcDbArc
 50
180.0
 51
254.4890489999973
  0
ARC
  5
C0B
330
BF0
100
AcDbEntity
  8
BLOCKS
100
AcDbCircle
 10
0.1176510000000235
 20
0.3579190000000381
 30
0.0
 40
0.117746
100
AcDbArc
 50
182.3034090000029
 51
206.7459829999976
  0
LINE
  5
C0C
330
BF0
100
AcDbEntity
  8
BLOCKS
100
AcDbLine
 10
0.0
 20
0.4368739999999889
 30
0.0
 11
0.0
 21
0.3531860000000506
 31
0.0
  0
LINE
  5
C0D
330
BF0
100
AcDbEntity
  8
BLOCKS
100
AcDbLine
 10
0.0
 20
0.825000000000046
 30
0.0
 11
0.0
 21
0.4600000000000364
 31
0.0
  0
LINE
  5
C0E
330
BF0
100
AcDbEntity
  8
BLOCKS
100
AcDbLine
 10
0.6532529999999497
 20
0.3899999999999863
 30
0.0
 11
0.0
 21
0.3899999999999863
 31
0.0
  0
LINE
  5
C0F
330
BF0
100
AcDbEntity
  8
BLOCKS
100
AcDbLine
 10
0.155285000000049
 20
0.4368739999999889
 30
0.0
 11
0.0
 21
0.4368739999999889
 31
0.0
  0
LINE
  5
C10
330
BF0
100
AcDbEntity
  8
BLOCKS
100
AcDbLine
 10
0.1762850000000071
 20
0.4468739999999798
 30
0.0
 11
0.0080390000000534
 21
0.4468739999999798
 31
0.0
  0
ARC
  5
C11
330
BF0
100
AcDbEntity
  8
BLOCKS
100
AcDbCircle
 10
0.9959310000000414
 20
0.7834110000000015
 30
0.0
 40
1.093652999999999
100
AcDbArc
 50
205.944992000001
 51
211.617934000003
  0
LINE
  5
C12
330
BF0
100
AcDbEntity
  8
BLOCKS
100
AcDbLine
 10
0.1762850000000071
 20
0.783171000000039
 30
0.0
 11
0.0
 21
0.783171000000039
 31
0.0
  0
LINE
  5
C13
330
BF0
100
AcDbEntity
  8
BLOCKS
100
AcDbLine
 10
0.1662850000000162
 20
0.8350000000000369
 30
0.0
 11
0.0099999999999909
 21
0.8350000000000369
 31
0.0
  0
LINE
  5
C14
330
BF0
100
AcDbEntity
  8
BLOCKS
100
AcDbLine
 10
0.2823590000000422
 20
0.0299999999999727
 30
0.0
 11
0.3423589999999876
 21
0.0299999999999727
 31
0.0
  0
LINE
  5
C15
330
BF0
100
AcDbEntity
  8
BLOCKS
100
AcDbLine
 10
0.2823590000000422
 20
0.0299999999999727
 30
0.0
 11
0.2877670000000307
 21
0.169695000000047
 31
0.0
  0
LINE
  5
C16
330
BF0
100
AcDbEntity
  8
BLOCKS
100
AcDbLine
 10
0.3423589999999876
 20
0.0299999999999727
 30
0.0
 11
0.3369509999999991
 21
0.169695000000047
 31
0.0
  0
ARC
  5
C17
330
BF0
100
AcDbEntity
  8
BLOCKS
100
AcDbCircle
 10
0.0674209999999675
 20
0.1805970000000343
 30
0.0
 40
0.032006
100
AcDbArc
 50
22.39978799999996
 51
25.28331999999744
  0
ARC
  5
C18
330
BF0
100
AcDbEntity
  8
BLOCKS
100
AcDbCircle
 10
-0.5519090000000233
 20
-0.0053560000000061
 30
0.0
 40
0.678565
100
AcDbArc
 50
9.692853000002154
 51
17.10855899999848
  0
ARC
  5
C19
330
BF0
100
AcDbEntity
  8
BLOCKS
100
AcDbCircle
 10
-0.2224179999999478
 20
0.0025170000000117
 30
0.0
 40
0.355668
100
AcDbArc
 50
1.29848899999924
 51
17.40262399999983
  0
LINE
  5
C1A
330
BF0
100
AcDbEntity
  8
BLOCKS
100
AcDbLine
 10
0.5199999999999818
 20
0.0
 30
0.0
 11
0.1100000000000136
 21
0.0
 31
0.0
  0
ARC
  5
C1B
330
BF0
100
AcDbEntity
  8
BLOCKS
100
AcDbCircle
 10
1.180287000000021
 20
-0.0401480000000447
 30
0.0
 40
0.6615070000000002
100
AcDbArc
 50
141.939108999998
 51
176.520490000003
  0
ARC
  5
C1C
330
BF0
100
AcDbEntity
  8
BLOCKS
100
AcDbCircle
 10
0.3123590000000149
 20
0.1746150000000171
 30
0.0
 40
0.025079
100
AcDbArc
 50
348.6852989999986
 51
191.3147010000014
  0
ARC
  5
C1D
330
BF0
100
AcDbEntity
  8
BLOCKS
100
AcDbCircle
 10
-0.2104990000000271
 20
0.0406900000000405
 30
0.0
 40
0.323072
100
AcDbArc
 50
352.764619000002
 51
31.61793400000307
  0
ARC
  5
C1E
330
BF0
100
AcDbEntity
  8
BLOCKS
100
AcDbCircle
 10
0.5297329999999647
 20
0.391840000000002
 30
0.0
 40
0.47604
100
AcDbArc
 50
183.8998890000029
 51
204.521556000002
  0
ENDBLK
  5
C20
330
BF0
100
AcDbEntity
  8
0
100
AcDbBlockEnd
  0
BLOCK
  5
C43
330
C22
100
AcDbEntity
  8
0
100
AcDbBlockBegin
  2
104022AF
 70
     0
 10
0.0
 20
0.0
 30
0.0
  3
104022AF
  1

  0
LINE
  5
C23
330
C22
100
AcDbEntity
  8
BLOCKS
100
AcDbLine
 10
0.1749999999999545
 20
0.8300000000000409
 30
0.0
 11
0.1749999999999545
 21
0.7906709999999748
 31
0.0
  0
ARC
  5
C24
330
C22
100
AcDbEntity
  8
BLOCKS
100
AcDbCircle
 10
-0.1699999999999591
 20
0.7906709999999748
 30
0.0
 40
0.005
100
AcDbArc
 50
180.0
 51
270.0
  0
LINE
  5
C25
330
C22
100
AcDbEntity
  8
BLOCKS
100
AcDbLine
 10
-0.1749999999999545
 20
0.8300000000000409
 30
0.0
 11
-0.1749999999999545
 21
0.7906709999999748
 31
0.0
  0
ARC
  5
C26
330
C22
100
AcDbEntity
  8
BLOCKS
100
AcDbCircle
 10
-0.1699999999999591
 20
0.8300000000000409
 30
0.0
 40
0.005
100
AcDbArc
 50
90.0
 51
180.0
  0
ARC
  5
C27
330
C22
100
AcDbEntity
  8
BLOCKS
100
AcDbCircle
 10
-0.1699999999999591
 20
0.7756709999999885
 30
0.0
 40
0.005
100
AcDbArc
 50
90.0
 51
180.0
  0
LINE
  5
C28
330
C22
100
AcDbEntity
  8
BLOCKS
100
AcDbLine
 10
0.1699999999999591
 20
0.7806709999999839
 30
0.0
 11
-0.1699999999999591
 21
0.7806709999999839
 31
0.0
  0
LINE
  5
C29
330
C22
100
AcDbEntity
  8
BLOCKS
100
AcDbLine
 10
0.1699999999999591
 20
0.7856709999999794
 30
0.0
 11
-0.1699999999999591
 21
0.7856709999999794
 31
0.0
  0
LINE
  5
C2A
330
C22
100
AcDbEntity
  8
BLOCKS
100
AcDbLine
 10
0.1699999999999591
 20
0.8350000000000363
 30
0.0
 11
-0.1699999999999591
 21
0.8350000000000363
 31
0.0
  0
LINE
  5
C2B
330
C22
100
AcDbEntity
  8
BLOCKS
100
AcDbLine
 10
0.1660799999999654
 20
0.3999999999999772
 30
0.0
 11
0.0
 21
0.3999999999999772
 31
0.0
  0
LINE
  5
C2C
330
C22
100
AcDbEntity
  8
BLOCKS
100
AcDbLine
 10
0.1749999999999545
 20
0.4368739999999889
 30
0.0
 11
0.1749999999999545
 21
0.3945200000000568
 31
0.0
  0
ARC
  5
C2D
330
C22
100
AcDbEntity
  8
BLOCKS
100
AcDbCircle
 10
-0.1649999999999636
 20
0.4368739999999889
 30
0.0
 40
0.01
100
AcDbArc
 50
90.0
 51
180.0
  0
ARC
  5
C2E
330
C22
100
AcDbEntity
  8
BLOCKS
100
AcDbCircle
 10
-0.1699999999999591
 20
0.4518739999999753
 30
0.0
 40
0.005
100
AcDbArc
 50
180.0
 51
270.0
  0
ARC
  5
C2F
330
C22
100
AcDbEntity
  8
BLOCKS
100
AcDbCircle
 10
-0.1660799999999654
 20
0.3899999999999863
 30
0.0
 40
0.01
100
AcDbArc
 50
90.0
 51
206.3186889999986
  0
LINE
  5
C30
330
C22
100
AcDbEntity
  8
BLOCKS
100
AcDbLine
 10
-0.1749999999999545
 20
0.4368739999999889
 30
0.0
 11
-0.1749999999999545
 21
0.3945200000000568
 31
0.0
  0
ARC
  5
C31
330
C22
100
AcDbEntity
  8
BLOCKS
100
AcDbCircle
 10
-0.1649999999999636
 20
0.4238739999999553
 30
0.0
 40
0.01
100
AcDbArc
 50
90.0
 51
180.0
  0
LINE
  5
C32
330
C22
100
AcDbEntity
  8
BLOCKS
100
AcDbLine
 10
0.1699999999999591
 20
0.4468739999999798
 30
0.0
 11
-0.1699999999999591
 21
0.4468739999999798
 31
0.0
  0
LINE
  5
C33
330
C22
100
AcDbEntity
  8
BLOCKS
100
AcDbLine
 10
0.1649999999999636
 20
0.4338739999999462
 30
0.0
 11
-0.1649999999999636
 21
0.4338739999999462
 31
0.0
  0
LINE
  5
C34
330
C22
100
AcDbEntity
  8
BLOCKS
100
AcDbLine
 10
-0.1660799999999654
 20
0.3999999999999772
 30
0.0
 11
0.0
 21
0.3999999999999772
 31
0.0
  0
ARC
  5
C35
330
C22
100
AcDbEntity
  8
BLOCKS
100
AcDbCircle
 10
0.0852609999999459
 20
0.0099999999999909
 30
0.0
 40
0.01
100
AcDbArc
 50
270.0
 51
2.304969999997592
  0
ARC
  5
C36
330
C22
100
AcDbEntity
  8
BLOCKS
100
AcDbCircle
 10
-0.0852609999999459
 20
0.0099999999999909
 30
0.0
 40
0.01
100
AcDbArc
 50
177.6950300000024
 51
270.0
  0
LINE
  5
C37
330
C22
100
AcDbEntity
  8
BLOCKS
100
AcDbLine
 10
0.0852609999999459
 20
0.0
 30
0.0
 11
-0.0852609999999459
 21
0.0
 31
0.0
  0
ARC
  5
C38
330
C22
100
AcDbEntity
  8
BLOCKS
100
AcDbCircle
 10
-0.8704269999999496
 20
0.0416040000000066
 30
0.0
 40
0.7758030000000002
100
AcDbArc
 50
357.6950300000024
 51
26.3186889999986
  0
LINE
  5
C39
330
C22
100
AcDbEntity
  8
BLOCKS
100
AcDbLine
 10
-0.1749999999999545
 20
0.7756709999999885
 30
0.0
 11
-0.1749999999999545
 21
0.4518739999999753
 31
0.0
  0
LINE
  5
C3A
330
C22
100
AcDbEntity
  8
BLOCKS
100
AcDbLine
 10
0.1749999999999545
 20
0.7756709999999885
 30
0.0
 11
0.1749999999999545
 21
0.4518739999999753
 31
0.0
  0
ARC
  5
C3B
330
C22
100
AcDbEntity
  8
BLOCKS
100
AcDbCircle
 10
0.8704269999999496
 20
0.0416040000000066
 30
0.0
 40
0.7758030000000002
100
AcDbArc
 50
153.6813110000014
 51
182.3049699999975
  0
ARC
  5
C3C
330
C22
100
AcDbEntity
  8
BLOCKS
100
AcDbCircle
 10
0.1660799999999654
 20
0.3899999999999863
 30
0.0
 40
0.01
100
AcDbArc
 50
333.6813110000014
 51
90.0
  0
ARC
  5
C3D
330
C22
100
AcDbEntity
  8
BLOCKS
100
AcDbCircle
 10
0.1649999999999636
 20
0.4238739999999553
 30
0.0
 40
0.01
100
AcDbArc
 50
0.0
 51
90.0
  0
ARC
  5
C3E
330
C22
100
AcDbEntity
  8
BLOCKS
100
AcDbCircle
 10
0.1649999999999636
 20
0.4368739999999889
 30
0.0
 40
0.01
100
AcDbArc
 50
0.0
 51
90.0
  0
ARC
  5
C3F
330
C22
100
AcDbEntity
  8
BLOCKS
100
AcDbCircle
 10
0.1699999999999591
 20
0.4518739999999753
 30
0.0
 40
0.005
100
AcDbArc
 50
270.0
 51
0.0
  0
ARC
  5
C40
330
C22
100
AcDbEntity
  8
BLOCKS
100
AcDbCircle
 10
0.1699999999999591
 20
0.7756709999999885
 30
0.0
 40
0.005
100
AcDbArc
 50
0.0
 51
90.0
  0
ARC
  5
C41
330
C22
100
AcDbEntity
  8
BLOCKS
100
AcDbCircle
 10
0.1699999999999591
 20
0.7906709999999748
 30
0.0
 40
0.005
100
AcDbArc
 50
270.0
 51
0.0
  0
ARC
  5
C42
330
C22
100
AcDbEntity
  8
BLOCKS
100
AcDbCircle
 10
0.1699999999999591
 20
0.8300000000000409
 30
0.0
 40
0.005
100
AcDbArc
 50
0.0
 51
90.0
  0
ENDBLK
  5
C44
330
C22
100
AcDbEntity
  8
0
100
AcDbBlockEnd
  0
BLOCK
  5
D22
330
C46
100
AcDbEntity
  8
0
100
AcDbBlockBegin
  2
104022CT
 70
     0
 10
0.0
 20
0.0
 30
0.0
  3
104022CT
  1

  0
ARC
  5
C47
330
C46
100
AcDbEntity
  8
BLOCKS
100
AcDbCircle
 10
0.1351120000000492
 20
0.8150000000000545
 30
0.0
 40
0.01
100
AcDbArc
 50
8.324689999998044
 51
90.0
  0
LINE
  5
C48
330
C46
100
AcDbEntity
  8
BLOCKS
100
AcDbLine
 10
0.1081420000000435
 20
0.8350000000000363
 30
0.0
 11
0.1081420000000435
 21
0.8250000000000454
 31
0.0
  0
ARC
  5
C49
330
C46
100
AcDbEntity
  8
BLOCKS
100
AcDbCircle
 10
0.1612010000000055
 20
0.8045069999999441
 30
0.0
 40
0.003
100
AcDbArc
 50
188.324689999998
 51
270.0
  0
ARC
  5
C4A
330
C46
100
AcDbEntity
  8
BLOCKS
100
AcDbCircle
 10
0.1606610000000046
 20
0.8220079999999825
 30
0.0
 40
0.005
100
AcDbArc
 50
90.0
 51
188.324689999998
  0
ARC
  5
C4B
330
C46
100
AcDbEntity
  8
BLOCKS
100
AcDbCircle
 10
0.1612850000000208
 20
0.8220079999999825
 30
0.0
 40
0.005
100
AcDbArc
 50
0.0
 51
90.0
  0
ARC
  5
C4C
330
C46
100
AcDbEntity
  8
BLOCKS
100
AcDbCircle
 10
0.1612850000000208
 20
0.8065070000000105
 30
0.0
 40
0.005
100
AcDbArc
 50
270.0
 51
0.0
  0
LINE
  5
C4D
330
C46
100
AcDbEntity
  8
BLOCKS
100
AcDbLine
 10
0.1606610000000046
 20
0.8270079999999779
 30
0.0
 11
0.1612850000000208
 21
0.8270079999999779
 31
0.0
  0
LINE
  5
C4E
330
C46
100
AcDbEntity
  8
BLOCKS
100
AcDbLine
 10
0.1612010000000055
 20
0.801507000000015
 30
0.0
 11
0.1612850000000208
 21
0.801507000000015
 31
0.0
  0
LINE
  5
C4F
330
C46
100
AcDbEntity
  8
BLOCKS
100
AcDbLine
 10
0.1582319999999981
 20
0.8040720000000192
 30
0.0
 11
0.155713999999989
 21
0.8212839999999914
 31
0.0
  0
ARC
  5
C50
330
C46
100
AcDbEntity
  8
BLOCKS
100
AcDbCircle
 10
0.1670070000000123
 20
0.7868230000000267
 30
0.0
 40
0.005
100
AcDbArc
 50
146.2926409999973
 51
170.5869030000024
  0
ARC
  5
C51
330
C46
100
AcDbEntity
  8
BLOCKS
100
AcDbCircle
 10
0.1676139999999577
 20
0.7877340000000004
 30
0.0
 40
0.005
100
AcDbArc
 50
90.0
 51
146.2926409999973
  0
LINE
  5
C52
330
C46
100
AcDbEntity
  8
BLOCKS
100
AcDbLine
 10
0.1628470000000561
 20
0.7895979999999554
 30
0.0
 11
0.163454999999999
 21
0.7905090000000428
 31
0.0
  0
LINE
  5
C53
330
C46
100
AcDbEntity
  8
BLOCKS
100
AcDbLine
 10
0.1615040000000363
 20
0.7842000000000553
 30
0.0
 11
0.1620739999999614
 21
0.7876410000000078
 31
0.0
  0
LINE
  5
C54
330
C46
100
AcDbEntity
  8
BLOCKS
100
AcDbLine
 10
0.1676139999999577
 20
0.7927339999999959
 30
0.0
 11
0.1762850000000071
 21
0.7927339999999959
 31
0.0
  0
LINE
  5
C55
330
C46
100
AcDbEntity
  8
BLOCKS
100
AcDbLine
 10
0.1662850000000162
 20
0.7907340000000432
 30
0.0
 11
0.1762850000000071
 21
0.7907340000000432
 31
0.0
  0
ARC
  5
C56
330
C46
100
AcDbEntity
  8
BLOCKS
100
AcDbCircle
 10
0.1662850000000162
 20
0.8250000000000454
 30
0.0
 40
0.01
100
AcDbArc
 50
0.0
 51
90.0
  0
LINE
  5
C57
330
C46
100
AcDbEntity
  8
BLOCKS
100
AcDbLine
 10
0.1662850000000162
 20
0.8220079999999825
 30
0.0
 11
0.1662850000000162
 21
0.8065070000000105
 31
0.0
  0
ARC
  5
C58
330
C46
100
AcDbEntity
  8
BLOCKS
100
AcDbCircle
 10
0.0411729999999579
 20
0.8150000000000545
 30
0.0
 40
0.01
100
AcDbArc
 50
90.0
 51
171.6753100000019
  0
LINE
  5
C59
330
C46
100
AcDbEntity
  8
BLOCKS
100
AcDbLine
 10
0.0681419999999662
 20
0.8350000000000363
 30
0.0
 11
0.0681419999999662
 21
0.8250000000000454
 31
0.0
  0
LINE
  5
C5A
330
C46
100
AcDbEntity
  8
BLOCKS
100
AcDbLine
 10
0.1351120000000492
 20
0.8250000000000454
 30
0.0
 11
0.0411729999999579
 21
0.8250000000000454
 31
0.0
  0
ARC
  5
C5B
330
C46
100
AcDbEntity
  8
BLOCKS
100
AcDbCircle
 10
0.1599390000000085
 20
0.7841710000000149
 30
0.0
 40
0.001
100
AcDbArc
 50
270.0
 51
288.4282079999999
  0
LINE
  5
C5C
330
C46
100
AcDbEntity
  8
BLOCKS
100
AcDbLine
 10
0.1602550000000065
 20
0.7832220000000234
 30
0.0
 11
0.1608330000000251
 21
0.7834149999999909
 31
0.0
  0
LINE
  5
C5D
330
C46
100
AcDbEntity
  8
BLOCKS
100
AcDbLine
 10
0.1498759999999493
 20
0.7831710000000385
 30
0.0
 11
0.1450059999999667
 21
0.8164480000000366
 31
0.0
  0
LINE
  5
C5E
330
C46
100
AcDbEntity
  8
BLOCKS
100
AcDbLine
 10
0.0264089999999442
 20
0.7831710000000385
 30
0.0
 11
0.031278000000043
 21
0.8164480000000366
 31
0.0
  0
ARC
  5
C5F
330
C46
100
AcDbEntity
  8
BLOCKS
100
AcDbCircle
 10
0.1605170000000271
 20
0.7843639999999823
 30
0.0
 40
0.001
100
AcDbArc
 50
288.4282079999999
 51
350.5869030000024
  0
ARC
  5
C60
330
C46
100
AcDbEntity
  8
BLOCKS
100
AcDbCircle
 10
0.6540529999999763
 20
0.3435779999999795
 30
0.0
 40
0.056427
100
AcDbArc
 50
90.81257999999822
 51
139.8093130000011
  0
LINE
  5
C61
330
C46
100
AcDbEntity
  8
BLOCKS
100
AcDbLine
 10
0.6145539999999983
 20
0.3510730000000422
 30
0.0
 11
0.6319529999999532
 21
0.3510730000000422
 31
0.0
  0
ARC
  5
C62
330
C46
100
AcDbEntity
  8
BLOCKS
100
AcDbCircle
 10
0.6540529999999763
 20
0.3435779999999795
 30
0.0
 40
0.046427
100
AcDbArc
 50
96.70801699999733
 51
162.4465859999996
  0
ARC
  5
C63
330
C46
100
AcDbEntity
  8
BLOCKS
100
AcDbCircle
 10
0.6415040000000545
 20
0.3541790000000446
 30
0.0
 40
0.04
100
AcDbArc
 50
139.8093130000011
 51
153.3184469999976
  0
ARC
  5
C64
330
C46
100
AcDbEntity
  8
BLOCKS
100
AcDbCircle
 10
0.6145539999999983
 20
0.3560730000000376
 30
0.0
 40
0.005
100
AcDbArc
 50
162.4465859999996
 51
270.0
  0
ARC
  5
C65
330
C46
100
AcDbEntity
  8
BLOCKS
100
AcDbCircle
 10
0.6180419999999458
 20
0.3360730000000558
 30
0.0
 40
0.005
100
AcDbArc
 50
326.2119429999986
 51
90.0
  0
ARC
  5
C66
330
C46
100
AcDbEntity
  8
BLOCKS
100
AcDbCircle
 10
0.6319529999999532
 20
0.3560730000000376
 30
0.0
 40
0.005
100
AcDbArc
 50
270.0
 51
324.1485300000008
  0
ARC
  5
C67
330
C46
100
AcDbEntity
  8
BLOCKS
100
AcDbCircle
 10
0.6492140000000291
 20
0.3847220000000107
 30
0.0
 40
0.005
100
AcDbArc
 50
26.89049300000294
 51
96.70801699999733
  0
ARC
  5
C68
330
C46
100
AcDbEntity
  8
BLOCKS
100
AcDbCircle
 10
0.6436179999999468
 20
0.3818850000000111
 30
0.0
 40
0.011274
100
AcDbArc
 50
318.0731159999996
 51
26.89049300000294
  0
ARC
  5
C69
330
C46
100
AcDbEntity
  8
BLOCKS
100
AcDbCircle
 10
1.180287000000021
 20
-0.0401480000000447
 30
0.0
 40
0.6715070000000001
100
AcDbArc
 50
141.939108999998
 51
144.1485300000009
  0
ARC
  5
C6A
330
C46
100
AcDbEntity
  8
BLOCKS
100
AcDbCircle
 10
0.6532529999999497
 20
0.3949999999999818
 30
0.0
 40
0.005
100
AcDbArc
 50
53.70030199999851
 51
90.0
  0
ARC
  5
C6B
330
C46
100
AcDbEntity
  8
BLOCKS
100
AcDbCircle
 10
0.6436179999999468
 20
0.3818850000000111
 30
0.0
 40
0.021274
100
AcDbArc
 50
318.0731159999996
 51
53.70030199999851
  0
LINE
  5
C6C
330
C46
100
AcDbEntity
  8
BLOCKS
100
AcDbLine
 10
0.5901499999999942
 20
0.3410730000000512
 30
0.0
 11
0.6057630000000245
 21
0.372141000000056
 31
0.0
  0
ARC
  5
C6D
330
C46
100
AcDbEntity
  8
BLOCKS
100
AcDbCircle
 10
0.553309000000013
 20
0.2139369999999872
 30
0.0
 40
0.005
100
AcDbArc
 50
337.9395699999975
 51
126.3013319999986
  0
ARC
  5
C6E
330
C46
100
AcDbEntity
  8
BLOCKS
100
AcDbCircle
 10
0.4615740000000415
 20
0.3386410000000524
 30
0.0
 40
0.140867
100
AcDbArc
 50
296.2901010000032
 51
329.6840249999986
  0
LINE
  5
C6F
330
C46
100
AcDbEntity
  8
BLOCKS
100
AcDbLine
 10
0.5831789999999728
 20
0.2675349999999526
 30
0.0
 11
0.6221980000000258
 21
0.3332920000000286
 31
0.0
  0
ARC
  5
C70
330
C46
100
AcDbEntity
  8
BLOCKS
100
AcDbCircle
 10
0.3317409999999654
 20
0.576960999999983
 30
0.0
 40
0.4121850000000002
100
AcDbArc
 50
295.5706760000001
 51
297.7980629999974
  0
LINE
  5
C71
330
C46
100
AcDbEntity
  8
BLOCKS
100
AcDbLine
 10
0.1347660000000133
 20
0.437404000000015
 30
0.0
 11
0.1376800000000458
 21
0.4468739999999798
 31
0.0
  0
ARC
  5
C72
330
C46
100
AcDbEntity
  8
BLOCKS
100
AcDbCircle
 10
0.1732849999999644
 20
0.4438740000000508
 30
0.0
 40
0.003
100
AcDbArc
 50
0.0
 51
90.0
  0
LINE
  5
C73
330
C46
100
AcDbEntity
  8
BLOCKS
100
AcDbLine
 10
0.1181420000000344
 20
0.4616590000000543
 30
0.0
 11
0.1181420000000344
 21
0.4500000000000455
 31
0.0
  0
ARC
  5
C74
330
C46
100
AcDbEntity
  8
BLOCKS
100
AcDbCircle
 10
0.1562850000000253
 20
0.4716590000000452
 30
0.0
 40
0.01
100
AcDbArc
 50
270.0
 51
0.0
  0
ARC
  5
C75
330
C46
100
AcDbEntity
  8
BLOCKS
100
AcDbCircle
 10
0.1662850000000162
 20
0.4600000000000364
 30
0.0
 40
0.01
100
AcDbArc
 50
270.0
 51
0.0
  0
LINE
  5
C76
330
C46
100
AcDbEntity
  8
BLOCKS
100
AcDbLine
 10
0.0415189999999939
 20
0.437404000000015
 30
0.0
 11
0.0386049999999614
 21
0.4468739999999798
 31
0.0
  0
LINE
  5
C77
330
C46
100
AcDbEntity
  8
BLOCKS
100
AcDbLine
 10
0.0581419999999753
 20
0.4616590000000543
 30
0.0
 11
0.0581419999999753
 21
0.4500000000000455
 31
0.0
  0
LINE
  5
C78
330
C46
100
AcDbEntity
  8
BLOCKS
100
AcDbLine
 10
0.1562850000000253
 20
0.4616590000000543
 30
0.0
 11
0.0199999999999818
 21
0.4616590000000543
 31
0.0
  0
ARC
  5
C79
330
C46
100
AcDbEntity
  8
BLOCKS
100
AcDbCircle
 10
0.28937499999995
 20
0.3310729999999467
 30
0.0
 40
0.01
100
AcDbArc
 50
90.0
 51
198.6307840000016
  0
ARC
  5
C7A
330
C46
100
AcDbEntity
  8
BLOCKS
100
AcDbCircle
 10
0.3015699999999697
 20
0.3460730000000467
 30
0.0
 40
0.005
100
AcDbArc
 50
270.0
 51
15.21406900000003
  0
ARC
  5
C7B
330
C46
100
AcDbEntity
  8
BLOCKS
100
AcDbCircle
 10
0.2884870000000319
 20
0.3560730000000376
 30
0.0
 40
0.005
100
AcDbArc
 50
270.0
 51
15.21406900000003
  0
ARC
  5
C7C
330
C46
100
AcDbEntity
  8
BLOCKS
100
AcDbCircle
 10
0.2882640000000265
 20
0.3949999999999818
 30
0.0
 40
0.005
100
AcDbArc
 50
15.21406900000003
 51
90.0
  0
ARC
  5
C7D
330
C46
100
AcDbEntity
  8
BLOCKS
100
AcDbCircle
 10
0.280619999999999
 20
0.3849999999999909
 30
0.0
 40
0.005
100
AcDbArc
 50
15.21406900000003
 51
90.0
  0
LINE
  5
C7E
330
C46
100
AcDbEntity
  8
BLOCKS
100
AcDbLine
 10
0.3063949999999522
 20
0.3473850000000311
 30
0.0
 11
0.293089000000009
 21
0.3963119999999662
 31
0.0
  0
LINE
  5
C7F
330
C46
100
AcDbEntity
  8
BLOCKS
100
AcDbLine
 10
0.2933120000000144
 20
0.357385000000022
 30
0.0
 11
0.2854449999999815
 21
0.3863119999999753
 31
0.0
  0
LINE
  5
C80
330
C46
100
AcDbEntity
  8
BLOCKS
100
AcDbLine
 10
0.2933359999999538
 20
0.3410730000000512
 30
0.0
 11
0.290616
 21
0.3510730000000422
 31
0.0
  0
LINE
  5
C81
330
C46
100
AcDbEntity
  8
BLOCKS
100
AcDbLine
 10
0.2880410000000211
 20
0.3410730000000512
 30
0.0
 11
0.2853209999999535
 21
0.3510730000000422
 31
0.0
  0
ARC
  5
C82
330
C46
100
AcDbEntity
  8
BLOCKS
100
AcDbCircle
 10
0.2309649999999692
 20
0.4049999999999728
 30
0.0
 40
0.005
100
AcDbArc
 50
180.0
 51
270.0
  0
ARC
  5
C83
330
C46
100
AcDbEntity
  8
BLOCKS
100
AcDbCircle
 10
0.2209649999999783
 20
0.3949999999999818
 30
0.0
 40
0.005
100
AcDbArc
 50
180.0
 51
270.0
  0
ARC
  5
C84
330
C46
100
AcDbEntity
  8
BLOCKS
100
AcDbCircle
 10
0.2109649999999874
 20
0.4088739999999689
 30
0.0
 40
0.005
100
AcDbArc
 50
0.0
 51
90.0
  0
LINE
  5
C85
330
C46
100
AcDbEntity
  8
BLOCKS
100
AcDbLine
 10
0.2159649999999829
 20
0.4088739999999689
 30
0.0
 11
0.2159649999999829
 21
0.3949999999999818
 31
0.0
  0
ARC
  5
C86
330
C46
100
AcDbEntity
  8
BLOCKS
100
AcDbCircle
 10
0.2209649999999783
 20
0.4288739999999507
 30
0.0
 40
0.005
100
AcDbArc
 50
0.0
 51
90.0
  0
LINE
  5
C87
330
C46
100
AcDbEntity
  8
BLOCKS
100
AcDbLine
 10
0.2259649999999738
 20
0.4288739999999507
 30
0.0
 11
0.2259649999999738
 21
0.4049999999999728
 31
0.0
  0
ARC
  5
C88
330
C46
100
AcDbEntity
  8
BLOCKS
100
AcDbCircle
 10
0.2398080000000391
 20
0.371073000000024
 30
0.0
 40
0.03
100
AcDbArc
 50
257.8010629999978
 51
270.0
  0
ARC
  5
C89
330
C46
100
AcDbEntity
  8
BLOCKS
100
AcDbCircle
 10
0.2408769999999549
 20
0.3810730000000149
 30
0.0
 40
0.03
100
AcDbArc
 50
257.8010629999978
 51
270.0
  0
LINE
  5
C8A
330
C46
100
AcDbEntity
  8
BLOCKS
100
AcDbLine
 10
0.2398080000000391
 20
0.3410730000000512
 30
0.0
 11
0.2579170000000204
 21
0.3410730000000512
 31
0.0
  0
LINE
  5
C8B
330
C46
100
AcDbEntity
  8
BLOCKS
100
AcDbLine
 10
0.280619999999999
 20
0.3899999999999863
 30
0.0
 11
0.2209649999999783
 21
0.3899999999999863
 31
0.0
  0
ARC
  5
C8C
330
C46
100
AcDbEntity
  8
BLOCKS
100
AcDbCircle
 10
0.2579170000000204
 20
0.3310729999999467
 30
0.0
 40
0.01
100
AcDbArc
 50
16.46752800000199
 51
90.0
  0
LINE
  5
C8D
330
C46
100
AcDbEntity
  8
BLOCKS
100
AcDbLine
 10
0.2408769999999549
 20
0.3510730000000422
 30
0.0
 11
0.2884870000000319
 21
0.3510730000000422
 31
0.0
  0
ARC
  5
C8E
330
C46
100
AcDbEntity
  8
BLOCKS
100
AcDbCircle
 10
0.3143700000000535
 20
0.197035000000028
 30
0.0
 40
0.03
100
AcDbArc
 50
43.45381100000001
 51
107.2142259999978
  0
ARC
  5
C8F
330
C46
100
AcDbEntity
  8
BLOCKS
100
AcDbCircle
 10
0.282703999999967
 20
0.2992420000000493
 30
0.0
 40
0.077
100
AcDbArc
 50
272.8675439999969
 51
287.2142259999979
  0
ARC
  5
C90
330
C46
100
AcDbEntity
  8
BLOCKS
100
AcDbCircle
 10
0.282703999999967
 20
0.2992420000000493
 30
0.0
 40
0.067
100
AcDbArc
 50
271.9683619999982
 51
296.9206680000026
  0
ARC
  5
C91
330
C46
100
AcDbEntity
  8
BLOCKS
100
AcDbCircle
 10
0.311523999999963
 20
0.2427589999999782
 30
0.0
 40
0.003592
100
AcDbArc
 50
294.9395680000003
 51
39.07498699999875
  0
ARC
  5
C92
330
C46
100
AcDbEntity
  8
BLOCKS
100
AcDbCircle
 10
0.2195209999999861
 20
0.2371570000000247
 30
0.0
 40
0.02
100
AcDbArc
 50
270.0
 51
281.5989100000018
  0
ARC
  5
C93
330
C46
100
AcDbEntity
  8
BLOCKS
100
AcDbCircle
 10
0.2205340000000433
 20
0.2271570000000338
 30
0.0
 40
0.02
100
AcDbArc
 50
270.0
 51
281.5381889999998
  0
ARC
  5
C94
330
C46
100
AcDbEntity
  8
BLOCKS
100
AcDbCircle
 10
0.0283419999999524
 20
1.168596999999977
 30
0.0
 40
0.9708580000000001
100
AcDbArc
 50
281.5989100000018
 51
285.3293499999988
  0
ARC
  5
C95
330
C46
100
AcDbEntity
  8
BLOCKS
100
AcDbCircle
 10
0.0283419999999524
 20
1.168596999999977
 30
0.0
 40
0.980858
100
AcDbArc
 50
281.5381889999998
 51
285.263167000002
  0
ARC
  5
C96
330
C46
100
AcDbEntity
  8
BLOCKS
100
AcDbCircle
 10
0.5132439999999861
 20
0.406547000000046
 30
0.0
 40
0.246249
100
AcDbArc
 50
198.6307840000016
 51
219.0749869999988
  0
ARC
  5
C97
330
C46
100
AcDbEntity
  8
BLOCKS
100
AcDbCircle
 10
0.5132439999999861
 20
0.406547000000046
 30
0.0
 40
0.256249
100
AcDbArc
 50
196.467528000002
 51
219.0749869999988
  0
LINE
  5
C98
330
C46
100
AcDbEntity
  8
BLOCKS
100
AcDbLine
 10
0.1662850000000162
 20
0.4238739999999553
 30
0.0
 11
0.1662850000000162
 21
0.426513
 31
0.0
  0
ARC
  5
C99
330
C46
100
AcDbEntity
  8
BLOCKS
100
AcDbCircle
 10
0.1762850000000071
 20
0.4238739999999553
 30
0.0
 40
0.01
100
AcDbArc
 50
180.0
 51
270.0
  0
ARC
  5
C9A
330
C46
100
AcDbEntity
  8
BLOCKS
100
AcDbCircle
 10
0.133006000000023
 20
0.4338739999999462
 30
0.0
 40
0.01
100
AcDbArc
 50
270.0
 51
317.1826249999974
  0
LINE
  5
C9B
330
C46
100
AcDbEntity
  8
BLOCKS
100
AcDbLine
 10
0.1403410000000349
 20
0.4270770000000539
 30
0.0
 11
0.1456369999999651
 21
0.4318009999999504
 31
0.0
  0
ARC
  5
C9C
330
C46
100
AcDbEntity
  8
BLOCKS
100
AcDbCircle
 10
0.1792850000000499
 20
0.426873999999998
 30
0.0
 40
0.003
100
AcDbArc
 50
180.0
 51
270.0
  0
LINE
  5
C9D
330
C46
100
AcDbEntity
  8
BLOCKS
100
AcDbLine
 10
0.1201419999999871
 20
0.4239479999999958
 30
0.0
 11
0.1221420000000535
 21
0.4338739999999462
 31
0.0
  0
ARC
  5
C9E
330
C46
100
AcDbEntity
  8
BLOCKS
100
AcDbCircle
 10
0.0544609999999466
 20
0.3748030000000426
 30
0.0
 40
0.01
100
AcDbArc
 50
270.0
 51
328.5601199999983
  0
ARC
  5
C9F
330
C46
100
AcDbEntity
  8
BLOCKS
100
AcDbCircle
 10
0.050974999999994
 20
0.3769340000000056
 30
0.0
 40
0.014086
100
AcDbArc
 50
328.5601199999983
 51
5.952442000001849
  0
ARC
  5
CA0
330
C46
100
AcDbEntity
  8
BLOCKS
100
AcDbCircle
 10
0.0391419999999698
 20
0.4308740000000171
 30
0.0
 40
0.007
100
AcDbArc
 50
180.0
 51
270.0
  0
ARC
  5
CA1
330
C46
100
AcDbEntity
  8
BLOCKS
100
AcDbCircle
 10
0.0311420000000453
 20
0.4318319999999858
 30
0.0
 40
0.001
100
AcDbArc
 50
0.0
 51
47.68405499999877
  0
LINE
  5
CA2
330
C46
100
AcDbEntity
  8
BLOCKS
100
AcDbLine
 10
0.0321420000000217
 20
0.4318319999999858
 30
0.0
 11
0.0321420000000217
 21
0.4308740000000171
 31
0.0
  0
ARC
  5
CA3
330
C46
100
AcDbEntity
  8
BLOCKS
100
AcDbCircle
 10
0.0880750000000035
 20
0.4550309999999627
 30
0.0
 40
0.07
100
AcDbArc
 50
205.9538900000036
 51
257.8010629999978
  0
ARC
  5
CA4
330
C46
100
AcDbEntity
  8
BLOCKS
100
AcDbCircle
 10
0.0284500000000207
 20
0.4288739999999507
 30
0.0
 40
0.005
100
AcDbArc
 50
47.68405499999877
 51
197.1027290000004
  0
LINE
  5
CA5
330
C46
100
AcDbEntity
  8
BLOCKS
100
AcDbLine
 10
0.0251349999999775
 20
0.4243950000000041
 30
0.0
 11
0.0236710000000358
 21
0.4274040000000241
 31
0.0
  0
LINE
  5
CA6
330
C46
100
AcDbEntity
  8
BLOCKS
100
AcDbLine
 10
0.0561420000000226
 20
0.4239479999999958
 30
0.0
 11
0.0541419999999562
 21
0.4338739999999462
 31
0.0
  0
LINE
  5
CA7
330
C46
100
AcDbEntity
  8
BLOCKS
100
AcDbLine
 10
0.133006000000023
 20
0.4238739999999553
 30
0.0
 11
0.0391419999999698
 21
0.4238739999999553
 31
0.0
  0
LINE
  5
CA8
330
C46
100
AcDbEntity
  8
BLOCKS
100
AcDbLine
 10
0.1299870000000283
 20
0.4338739999999462
 30
0.0
 11
0.0462979999999789
 21
0.4338739999999462
 31
0.0
  0
ARC
  5
CA9
330
C46
100
AcDbEntity
  8
BLOCKS
100
AcDbCircle
 10
0.1460200000000213
 20
0.2121570000000474
 30
0.0
 40
0.005
100
AcDbArc
 50
90.0
 51
180.0
  0
LINE
  5
CAA
330
C46
100
AcDbEntity
  8
BLOCKS
100
AcDbLine
 10
0.0732839999999442
 20
0.3866110000000162
 30
0.0
 11
0.2345380000000432
 21
0.3517500000000382
 31
0.0
  0
LINE
  5
CAB
330
C46
100
AcDbEntity
  8
BLOCKS
100
AcDbLine
 10
0.0664199999999937
 20
0.377864000000045
 30
0.0
 11
0.2334690000000137
 21
0.3417500000000473
 31
0.0
  0
LINE
  5
CAC
330
C46
100
AcDbEntity
  8
BLOCKS
100
AcDbLine
 10
0.2209649999999783
 20
0.4338739999999462
 30
0.0
 11
0.1762850000000071
 21
0.4338739999999462
 31
0.0
  0
LINE
  5
CAD
330
C46
100
AcDbEntity
  8
BLOCKS
100
AcDbLine
 10
0.2109649999999874
 20
0.4138739999999644
 30
0.0
 11
0.1762850000000071
 21
0.4138739999999644
 31
0.0
  0
LINE
  5
CAE
330
C46
100
AcDbEntity
  8
BLOCKS
100
AcDbLine
 10
0.2259649999999738
 20
0.4238739999999553
 30
0.0
 11
0.1792850000000499
 21
0.4238739999999553
 31
0.0
  0
LINE
  5
CAF
330
C46
100
AcDbEntity
  8
BLOCKS
100
AcDbLine
 10
0.1410200000000259
 20
0.207157000000052
 30
0.0
 11
0.2205340000000433
 21
0.207157000000052
 31
0.0
  0
LINE
  5
CB0
330
C46
100
AcDbEntity
  8
BLOCKS
100
AcDbLine
 10
0.1460200000000213
 20
0.2171570000000429
 30
0.0
 11
0.2195209999999861
 21
0.2171570000000429
 31
0.0
  0
ARC
  5
CB1
330
C46
100
AcDbEntity
  8
BLOCKS
100
AcDbCircle
 10
0.1562850000000253
 20
0.426513
 30
0.0
 40
0.01
100
AcDbArc
 50
0.0
 51
105.4480620000008
  0
ARC
  5
CB2
330
C46
100
AcDbEntity
  8
BLOCKS
100
AcDbCircle
 10
0.1589480000000094
 20
0.4168740000000071
 30
0.0
 40
0.02
100
AcDbArc
 50
105.4480620000008
 51
131.7273439999969
  0
ARC
  5
CB3
330
C46
100
AcDbEntity
  8
BLOCKS
100
AcDbCircle
 10
0.1299870000000283
 20
0.4388740000000553
 30
0.0
 40
0.005
100
AcDbArc
 50
270.0
 51
342.8972709999995
  0
ARC
  5
CB4
330
C46
100
AcDbEntity
  8
BLOCKS
100
AcDbCircle
 10
0.0462979999999789
 20
0.4388740000000553
 30
0.0
 40
0.005
100
AcDbArc
 50
197.1027290000004
 51
270.0
  0
LINE
  5
CB5
330
C46
100
AcDbEntity
  8
BLOCKS
100
AcDbLine
 10
0.1762850000000071
 20
0.4438740000000508
 30
0.0
 11
0.1762850000000071
 21
0.426873999999998
 31
0.0
  0
LINE
  5
CB6
330
C46
100
AcDbEntity
  8
BLOCKS
100
AcDbLine
 10
0.6532529999999497
 20
0.3999999999999772
 30
0.0
 11
0.2309649999999692
 21
0.3999999999999772
 31
0.0
  0
LINE
  5
CB7
330
C46
100
AcDbEntity
  8
BLOCKS
100
AcDbLine
 10
0.28937499999995
 20
0.3410730000000512
 30
0.0
 11
0.6180419999999458
 21
0.3410730000000512
 31
0.0
  0
ARC
  5
CB8
330
C46
100
AcDbEntity
  8
BLOCKS
100
AcDbCircle
 10
0.7292290000000321
 20
0.556824000000006
 30
0.0
 40
0.5090209999999999
100
AcDbArc
 50
216.8817780000021
 51
222.1951259999989
  0
ARC
  5
CB9
330
C46
100
AcDbEntity
  8
BLOCKS
100
AcDbCircle
 10
0.5239659999999731
 20
0.189879000000019
 30
0.0
 40
0.01
100
AcDbArc
 50
116.4089669999969
 51
180.0
  0
ARC
  5
CBA
330
C46
100
AcDbEntity
  8
BLOCKS
100
AcDbCircle
 10
0.3317409999999654
 20
0.576960999999983
 30
0.0
 40
0.422185
100
AcDbArc
 50
296.4089669999969
 51
297.7980629999974
  0
ARC
  5
CBB
330
C46
100
AcDbEntity
  8
BLOCKS
100
AcDbCircle
 10
0.453738000000044
 20
0.0530320000000302
 30
0.0
 40
0.03
100
AcDbArc
 50
283.7659009999971
 51
313.4987040000029
  0
ARC
  5
CBC
330
C46
100
AcDbEntity
  8
BLOCKS
100
AcDbCircle
 10
0.4658210000000054
 20
0.0045129999999745
 30
0.0
 40
0.01
100
AcDbArc
 50
31.07919499999682
 51
103.8194669999985
  0
ARC
  5
CBD
330
C46
100
AcDbEntity
  8
BLOCKS
100
AcDbCircle
 10
0.4915150000000495
 20
0.0199999999999818
 30
0.0
 40
0.02
100
AcDbArc
 50
211.0791949999968
 51
270.0
  0
ARC
  5
CBE
330
C46
100
AcDbEntity
  8
BLOCKS
100
AcDbCircle
 10
0.4915150000000495
 20
0.0199999999999818
 30
0.0
 40
0.01
100
AcDbArc
 50
135.5002220000006
 51
270.0
  0
LINE
  5
CBF
330
C46
100
AcDbEntity
  8
BLOCKS
100
AcDbLine
 10
0.5014400000000024
 20
0.0099999999999909
 30
0.0
 11
0.4915150000000495
 21
0.0099999999999909
 31
0.0
  0
ARC
  5
CC0
330
C46
100
AcDbEntity
  8
BLOCKS
100
AcDbCircle
 10
0.4958500000000186
 20
0.0676770000000033
 30
0.0
 40
0.01
100
AcDbArc
 50
339.4878460000005
 51
0.0
  0
ARC
  5
CC1
330
C46
100
AcDbEntity
  8
BLOCKS
100
AcDbCircle
 10
0.4958500000000186
 20
0.0676770000000033
 30
0.0
 40
0.01
100
AcDbArc
 50
339.4878460000005
 51
0.0
  0
ARC
  5
CC2
330
C46
100
AcDbEntity
  8
BLOCKS
100
AcDbCircle
 10
0.4265249999999697
 20
0.0838649999999461
 30
0.0
 40
0.081118
100
AcDbArc
 50
315.5002220000006
 51
345.9507319999977
  0
ARC
  5
CC3
330
C46
100
AcDbEntity
  8
BLOCKS
100
AcDbCircle
 10
0.4845330000000559
 20
0.0666009999999915
 30
0.0
 40
0.01
100
AcDbArc
 50
334.3614999999973
 51
353.8305520000023
  0
ARC
  5
CC4
330
C46
100
AcDbEntity
  8
BLOCKS
100
AcDbCircle
 10
0.2289500000000544
 20
0.0942280000000437
 30
0.0
 40
0.2670710000000001
100
AcDbArc
 50
353.8305520000023
 51
357.9471650000019
  0
ARC
  5
CC5
330
C46
100
AcDbEntity
  8
BLOCKS
100
AcDbCircle
 10
0.4252350000000434
 20
0.0830690000000232
 30
0.0
 40
0.071409
100
AcDbArc
 50
313.4987040000029
 51
343.069341999998
  0
ARC
  5
CC6
330
C46
100
AcDbEntity
  8
BLOCKS
100
AcDbCircle
 10
0.4169289999999819
 20
0.2032749999999623
 30
0.0
 40
0.184686
100
AcDbArc
 50
274.0542359999994
 51
283.7659009999971
  0
ARC
  5
CC7
330
C46
100
AcDbEntity
  8
BLOCKS
100
AcDbCircle
 10
0.4169289999999819
 20
0.2032749999999623
 30
0.0
 40
0.194686
100
AcDbArc
 50
274.0542359999994
 51
283.8194669999986
  0
ARC
  5
CC8
330
C46
100
AcDbEntity
  8
BLOCKS
100
AcDbCircle
 10
0.4092570000000251
 20
0.0874919999999975
 30
0.0
 40
0.003
100
AcDbArc
 50
192.9635500000003
 51
224.6579369999975
  0
ARC
  5
CC9
330
C46
100
AcDbEntity
  8
BLOCKS
100
AcDbCircle
 10
0.410933
 20
0.0891470000000254
 30
0.0
 40
0.005355
100
AcDbArc
 50
224.6579369999975
 51
340.9251990000011
  0
ARC
  5
CCA
330
C46
100
AcDbEntity
  8
BLOCKS
100
AcDbCircle
 10
0.3954989999999725
 20
0.0587500000000318
 30
0.0
 40
0.03
100
AcDbArc
 50
212.7983490000005
 51
232.3392140000015
  0
ARC
  5
CCB
330
C46
100
AcDbEntity
  8
BLOCKS
100
AcDbCircle
 10
0.3879799999999704
 20
0.0519560000000183
 30
0.0
 40
0.03
100
AcDbArc
 50
212.7983490000005
 51
230.5431660000001
  0
ARC
  5
CCC
330
C46
100
AcDbEntity
  8
BLOCKS
100
AcDbCircle
 10
0.4245089999999437
 20
0.0963369999999486
 30
0.0
 40
0.077481
100
AcDbArc
 50
232.3392140000015
 51
274.0542359999994
  0
ARC
  5
CCD
330
C46
100
AcDbEntity
  8
BLOCKS
100
AcDbCircle
 10
0.4245089999999437
 20
0.0963369999999486
 30
0.0
 40
0.087481
100
AcDbArc
 50
230.5431660000001
 51
274.0542359999994
  0
LINE
  5
CCE
330
C46
100
AcDbEntity
  8
BLOCKS
100
AcDbLine
 10
0.5039659999999913
 20
0.1961280000000443
 30
0.0
 11
0.4958500000000186
 21
0.0846609999999828
 31
0.0
  0
ARC
  5
CCF
330
C46
100
AcDbEntity
  8
BLOCKS
100
AcDbCircle
 10
0.4131579999999531
 20
0.0883770000000368
 30
0.0
 40
0.003
100
AcDbArc
 50
340.9251990000011
 51
12.96117200000132
  0
ARC
  5
CD0
330
C46
100
AcDbEntity
  8
BLOCKS
100
AcDbCircle
 10
0.5014400000000024
 20
0.0199999999999818
 30
0.0
 40
0.01
100
AcDbArc
 50
270.0
 51
354.9366460000004
  0
LINE
  5
CD1
330
C46
100
AcDbEntity
  8
BLOCKS
100
AcDbLine
 10
0.5139659999999822
 20
0.189879000000019
 30
0.0
 11
0.5058500000000095
 21
0.0676770000000033
 31
0.0
  0
ARC
  5
CD2
330
C46
100
AcDbEntity
  8
BLOCKS
100
AcDbCircle
 10
0.2925520000000006
 20
0.1077350000000479
 30
0.0
 40
0.02
100
AcDbArc
 50
32.79834900000053
 51
104.1979299999976
  0
ARC
  5
CD3
330
C46
100
AcDbEntity
  8
BLOCKS
100
AcDbCircle
 10
0.2970659999999725
 20
0.1191919999999982
 30
0.0
 40
0.02
100
AcDbArc
 50
32.79834900000053
 51
104.1979299999976
  0
LINE
  5
CD4
330
C46
100
AcDbEntity
  8
BLOCKS
100
AcDbLine
 10
0.223814999999945
 20
0.1112900000000536
 30
0.0
 11
0.2009600000000091
 21
0.1112900000000536
 31
0.0
  0
ARC
  5
CD5
330
C46
100
AcDbEntity
  8
BLOCKS
100
AcDbCircle
 10
0.223814999999945
 20
0.1212900000000445
 30
0.0
 40
0.01
100
AcDbArc
 50
270.0
 51
284.1979299999976
  0
ARC
  5
CD6
330
C46
100
AcDbEntity
  8
BLOCKS
100
AcDbCircle
 10
0.223814999999945
 20
0.1212900000000445
 30
0.0
 40
0.01
100
AcDbArc
 50
270.0
 51
284.1979299999976
  0
ARC
  5
CD7
330
C46
100
AcDbEntity
  8
BLOCKS
100
AcDbCircle
 10
0.2213040000000319
 20
0.1309700000000475
 30
0.0
 40
0.01
100
AcDbArc
 50
270.6725110000022
 51
284.1979299999976
  0
ARC
  5
CD8
330
C46
100
AcDbEntity
  8
BLOCKS
100
AcDbCircle
 10
0.2009600000000091
 20
0.101289999999949
 30
0.0
 40
0.01
100
AcDbArc
 50
90.0
 51
172.9161169999969
  0
LINE
  5
CD9
330
C46
100
AcDbEntity
  8
BLOCKS
100
AcDbLine
 10
0.2237569999999778
 20
0.1212749999999687
 30
0.0
 11
0.2921599999999671
 21
0.1385820000000422
 31
0.0
  0
LINE
  5
CDA
330
C46
100
AcDbEntity
  8
BLOCKS
100
AcDbLine
 10
0.2262670000000071
 20
0.1115959999999632
 30
0.0
 11
0.2876469999999926
 21
0.1271249999999782
 31
0.0
  0
ARC
  5
CDB
330
C46
100
AcDbEntity
  8
BLOCKS
100
AcDbCircle
 10
0.2260270000000446
 20
0.0672839999999724
 30
0.0
 40
0.01
100
AcDbArc
 50
270.0
 51
350.7789800000032
  0
ARC
  5
CDC
330
C46
100
AcDbEntity
  8
BLOCKS
100
AcDbCircle
 10
0.2725930000000289
 20
0.0528890000000502
 30
0.0
 40
0.040762
100
AcDbArc
 50
170.5766310000028
 51
345.368352000002
  0
LINE
  5
CDD
330
C46
100
AcDbEntity
  8
BLOCKS
100
AcDbLine
 10
0.1910370000000512
 20
0.1025230000000192
 30
0.0
 11
0.1866629999999532
 21
0.06732599999998
 31
0.0
  0
LINE
  5
CDE
330
C46
100
AcDbEntity
  8
BLOCKS
100
AcDbLine
 10
0.244083000000046
 20
0.1161029999999528
 30
0.0
 11
0.2358980000000201
 21
0.065682000000038
 31
0.0
  0
LINE
  5
CDF
330
C46
100
AcDbEntity
  8
BLOCKS
100
AcDbLine
 10
0.3120330000000422
 20
0.0425920000000133
 30
0.0
 11
0.3120330000000422
 21
0.1144279999999753
 31
0.0
  0
LINE
  5
CE0
330
C46
100
AcDbEntity
  8
BLOCKS
100
AcDbLine
 10
0.1460200000000213
 20
0.1100269999999455
 30
0.0
 11
0.1762320000000273
 21
0.1100269999999455
 31
0.0
  0
ARC
  5
CE1
330
C46
100
AcDbEntity
  8
BLOCKS
100
AcDbCircle
 10
0.1460200000000213
 20
0.1150270000000546
 30
0.0
 40
0.005
100
AcDbArc
 50
180.0
 51
270.0
  0
ARC
  5
CE2
330
C46
100
AcDbEntity
  8
BLOCKS
100
AcDbCircle
 10
0.1762320000000273
 20
0.10502699999995
 30
0.0
 40
0.005
100
AcDbArc
 50
352.9161169999969
 51
90.0
  0
ARC
  5
CE3
330
C46
100
AcDbEntity
  8
BLOCKS
100
AcDbCircle
 10
-0.5732600000000048
 20
-0.1113239999999678
 30
0.0
 40
0.7363
100
AcDbArc
 50
17.40262399999986
 51
24.52155600000205
  0
ARC
  5
CE4
330
C46
100
AcDbEntity
  8
BLOCKS
100
AcDbCircle
 10
0.1196240000000444
 20
-0.0035329999999476
 30
0.0
 40
0.01
100
AcDbArc
 50
106.7825210000027
 51
159.3105009999974
  0
ARC
  5
CE5
330
C46
100
AcDbEntity
  8
BLOCKS
100
AcDbCircle
 10
0.1565829999999551
 20
0.0125880000000507
 30
0.0
 40
0.001
100
AcDbArc
 50
177.400592999998
 51
276.1725820000014
  0
ARC
  5
CE6
330
C46
100
AcDbEntity
  8
BLOCKS
100
AcDbCircle
 10
0.2162839999999733
 20
0.0098779999999579
 30
0.0
 40
0.060762
100
AcDbArc
 50
123.9759630000005
 51
189.3556280000032
  0
ARC
  5
CE7
330
C46
100
AcDbEntity
  8
BLOCKS
100
AcDbCircle
 10
0.2162839999999733
 20
0.0098779999999579
 30
0.0
 40
0.070762
100
AcDbArc
 50
127.2898849999975
 51
179.4340679999972
  0
ARC
  5
CE8
330
C46
100
AcDbEntity
  8
BLOCKS
100
AcDbCircle
 10
0.1476229999999532
 20
-0.0963729999999714
 30
0.0
 40
0.10697
100
AcDbArc
 50
91.12364699999824
 51
106.7825210000027
  0
ARC
  5
CE9
330
C46
100
AcDbEntity
  8
BLOCKS
100
AcDbCircle
 10
0.1673550000000432
 20
0.0741309999999658
 30
0.0
 40
0.01
100
AcDbArc
 50
307.2898849999976
 51
352.9161169999969
  0
LINE
  5
CEA
330
C46
100
AcDbEntity
  8
BLOCKS
100
AcDbLine
 10
0.1811940000000049
 20
0.1044100000000299
 30
0.0
 11
0.1772780000000012
 21
0.0728970000000118
 31
0.0
  0
ARC
  5
CEB
330
C46
100
AcDbEntity
  8
BLOCKS
100
AcDbCircle
 10
-0.2100510000000213
 20
0.0025170000000117
 30
0.0
 40
0.355668
100
AcDbArc
 50
1.29848899999924
 51
17.40262399999986
  0
ARC
  5
CEC
330
C46
100
AcDbEntity
  8
BLOCKS
100
AcDbCircle
 10
0.121436000000017
 20
0.1295000000000073
 30
0.0
 40
0.123064
100
AcDbArc
 50
286.6472280000004
 51
324.0688059999998
  0
LINE
  5
CED
330
C46
100
AcDbEntity
  8
BLOCKS
100
AcDbLine
 10
0.1410200000000259
 20
0.1200270000000501
 30
0.0
 11
0.2214219999999614
 21
0.1209710000000541
 31
0.0
  0
ARC
  5
CEE
330
C46
100
AcDbEntity
  8
BLOCKS
100
AcDbCircle
 10
0.1767389999999978
 20
0.0685590000000502
 30
0.0
 40
0.01
100
AcDbArc
 50
303.9759630000006
 51
352.9161169999969
  0
LINE
  5
CEF
330
C46
100
AcDbEntity
  8
BLOCKS
100
AcDbLine
 10
0.2260270000000446
 20
0.0572839999999815
 30
0.0
 11
0.1782749999999851
 21
0.0572839999999815
 31
0.0
  0
LINE
  5
CF0
330
C46
100
AcDbEntity
  8
BLOCKS
100
AcDbLine
 10
0.5199999999999818
 20
0.0
 30
0.0
 11
0.1100000000000136
 21
0.0
 31
0.0
  0
LINE
  5
CF1
330
C46
100
AcDbEntity
  8
BLOCKS
100
AcDbLine
 10
0.3138780000000452
 20
0.1300260000000435
 30
0.0
 11
0.3702809999999772
 21
0.0424990000000207
 31
0.0
  0
LINE
  5
CF2
330
C46
100
AcDbEntity
  8
BLOCKS
100
AcDbLine
 10
0.3093639999999596
 20
0.1185689999999795
 30
0.0
 11
0.3627629999999726
 21
0.0357060000000047
 31
0.0
  0
ARC
  5
CF3
330
C46
100
AcDbEntity
  8
BLOCKS
100
AcDbCircle
 10
-0.2104990000000271
 20
0.0406900000000405
 30
0.0
 40
0.323072
100
AcDbArc
 50
352.764619000002
 51
31.61793400000307
  0
LINE
  5
CF4
330
C46
100
AcDbEntity
  8
BLOCKS
100
AcDbLine
 10
0.1410200000000259
 20
0.1150270000000546
 30
0.0
 11
0.1410200000000259
 21
0.2121570000000474
 31
0.0
  0
ARC
  5
CF5
330
C46
100
AcDbEntity
  8
BLOCKS
100
AcDbCircle
 10
0.5297329999999647
 20
0.391840000000002
 30
0.0
 40
0.47604
100
AcDbArc
 50
183.2559039999987
 51
204.521556000002
  0
ARC
  5
CF6
330
C46
100
AcDbEntity
  8
BLOCKS
100
AcDbCircle
 10
1.180287000000021
 20
-0.0401480000000447
 30
0.0
 40
0.6615070000000002
100
AcDbArc
 50
141.939108999998
 51
176.520490000003
  0
ARC
  5
CF7
330
C46
100
AcDbEntity
  8
BLOCKS
100
AcDbCircle
 10
0.470931999999948
 20
0.3136899999999514
 30
0.0
 40
0.124378
100
AcDbArc
 50
297.4639609999988
 51
309.680724000001
  0
ARC
  5
CF8
330
C46
100
AcDbEntity
  8
BLOCKS
100
AcDbCircle
 10
1.180287000000021
 20
-0.0401480000000447
 30
0.0
 40
0.6715070000000001
100
AcDbArc
 50
157.9395699999975
 51
174.9366460000003
  0
ARC
  5
CF9
330
C46
100
AcDbEntity
  8
BLOCKS
100
AcDbCircle
 10
0.5139659999999822
 20
0.1961280000000443
 30
0.0
 40
0.01
100
AcDbArc
 50
115.5706760000001
 51
180.0
  0
ARC
  5
CFA
330
C46
100
AcDbEntity
  8
BLOCKS
100
AcDbCircle
 10
0.131844000000001
 20
0.0237240000000156
 30
0.0
 40
0.291649
100
AcDbArc
 50
12.94345399999851
 51
41.9888470000007
  0
ARC
  5
CFB
330
C46
100
AcDbEntity
  8
BLOCKS
100
AcDbCircle
 10
0.1311859999999569
 20
0.0234799999999496
 30
0.0
 40
0.282344
100
AcDbArc
 50
12.96355000000035
 51
43.45381100000001
  0
LINE
  5
CFC
330
C46
100
AcDbEntity
  8
BLOCKS
100
AcDbLine
 10
0.1662850000000162
 20
0.7907340000000432
 30
0.0
 11
0.1662850000000162
 21
0.4716590000000452
 31
0.0
  0
LINE
  5
CFD
330
C46
100
AcDbEntity
  8
BLOCKS
100
AcDbLine
 10
0.1762850000000071
 20
0.8250000000000454
 30
0.0
 11
0.1762850000000071
 21
0.4600000000000364
 31
0.0
  0
ARC
  5
CFE
330
C46
100
AcDbEntity
  8
BLOCKS
100
AcDbCircle
 10
0.0149999999999864
 20
0.8065070000000105
 30
0.0
 40
0.005
100
AcDbArc
 50
180.0
 51
270.0
  0
LINE
  5
CFF
330
C46
100
AcDbEntity
  8
BLOCKS
100
AcDbLine
 10
0.0099999999999909
 20
0.8220079999999825
 30
0.0
 11
0.0099999999999909
 21
0.8065070000000105
 31
0.0
  0
ARC
  5
D00
330
C46
100
AcDbEntity
  8
BLOCKS
100
AcDbCircle
 10
0.0149999999999864
 20
0.8220079999999825
 30
0.0
 40
0.005
100
AcDbArc
 50
90.0
 51
180.0
  0
LINE
  5
D01
330
C46
100
AcDbEntity
  8
BLOCKS
100
AcDbLine
 10
0.0150840000000017
 20
0.801507000000015
 30
0.0
 11
0.0149999999999864
 21
0.801507000000015
 31
0.0
  0
ARC
  5
D02
330
C46
100
AcDbEntity
  8
BLOCKS
100
AcDbCircle
 10
0.0150840000000017
 20
0.8045069999999441
 30
0.0
 40
0.003
100
AcDbArc
 50
270.0
 51
351.675310000002
  0
LINE
  5
D03
330
C46
100
AcDbEntity
  8
BLOCKS
100
AcDbLine
 10
0.0099999999999909
 20
0.7907340000000432
 30
0.0
 11
0.0
 21
0.7907340000000432
 31
0.0
  0
LINE
  5
D04
330
C46
100
AcDbEntity
  8
BLOCKS
100
AcDbLine
 10
0.0086700000000519
 20
0.7927339999999959
 30
0.0
 11
0.0
 21
0.7927339999999959
 31
0.0
  0
LINE
  5
D05
330
C46
100
AcDbEntity
  8
BLOCKS
100
AcDbLine
 10
0.013437999999951
 20
0.7895979999999554
 30
0.0
 11
0.0128300000000081
 21
0.7905090000000428
 31
0.0
  0
ARC
  5
D06
330
C46
100
AcDbEntity
  8
BLOCKS
100
AcDbCircle
 10
0.0086700000000519
 20
0.7877340000000004
 30
0.0
 40
0.005
100
AcDbArc
 50
33.70735900000263
 51
90.0
  0
ARC
  5
D07
330
C46
100
AcDbEntity
  8
BLOCKS
100
AcDbCircle
 10
0.0092779999999948
 20
0.7868230000000267
 30
0.0
 40
0.005
100
AcDbArc
 50
9.413096999997565
 51
33.70735900000263
  0
LINE
  5
D08
330
C46
100
AcDbEntity
  8
BLOCKS
100
AcDbLine
 10
0.0147809999999709
 20
0.7842000000000553
 30
0.0
 11
0.0142110000000457
 21
0.7876410000000078
 31
0.0
  0
ARC
  5
D09
330
C46
100
AcDbEntity
  8
BLOCKS
100
AcDbCircle
 10
0.0099999999999909
 20
0.8250000000000454
 30
0.0
 40
0.01
100
AcDbArc
 50
90.0
 51
180.0
  0
ARC
  5
D0A
330
C46
100
AcDbEntity
  8
BLOCKS
100
AcDbCircle
 10
0.0163459999999987
 20
0.7841710000000149
 30
0.0
 40
0.001
100
AcDbArc
 50
251.5717920000001
 51
270.0
  0
LINE
  5
D0B
330
C46
100
AcDbEntity
  8
BLOCKS
100
AcDbLine
 10
0.0160300000000007
 20
0.7832220000000234
 30
0.0
 11
0.015451999999982
 21
0.7834149999999909
 31
0.0
  0
ARC
  5
D0C
330
C46
100
AcDbEntity
  8
BLOCKS
100
AcDbCircle
 10
0.01576799999998
 20
0.7843639999999823
 30
0.0
 40
0.001
100
AcDbArc
 50
189.4130969999975
 51
251.5717920000001
  0
LINE
  5
D0D
330
C46
100
AcDbEntity
  8
BLOCKS
100
AcDbLine
 10
0.0
 20
0.4368739999999889
 30
0.0
 11
0.0
 21
0.4368090000000393
 31
0.0
  0
ARC
  5
D0E
330
C46
100
AcDbEntity
  8
BLOCKS
100
AcDbCircle
 10
0.0099999999999909
 20
0.4368739999999889
 30
0.0
 40
0.01
100
AcDbArc
 50
90.0
 51
180.0
  0
LINE
  5
D0F
330
C46
100
AcDbEntity
  8
BLOCKS
100
AcDbLine
 10
0.0
 20
0.4368739999999889
 30
0.0
 11
0.0
 21
0.4366690000000517
 31
0.0
  0
ARC
  5
D10
330
C46
100
AcDbEntity
  8
BLOCKS
100
AcDbCircle
 10
0.0099999999999909
 20
0.4600000000000364
 30
0.0
 40
0.01
100
AcDbArc
 50
180.0
 51
270.0
  0
ARC
  5
D11
330
C46
100
AcDbEntity
  8
BLOCKS
100
AcDbCircle
 10
0.0069999999999482
 20
0.4228090000000293
 30
0.0
 40
0.007
100
AcDbArc
 50
25.95389000000362
 51
90.0
  0
LINE
  5
D12
330
C46
100
AcDbEntity
  8
BLOCKS
100
AcDbLine
 10
0.018271000000027
 20
0.4156480000000329
 30
0.0
 11
0.0132939999999735
 21
0.4258730000000242
 31
0.0
  0
ARC
  5
D13
330
C46
100
AcDbEntity
  8
BLOCKS
100
AcDbCircle
 10
0.1176510000000235
 20
0.3579190000000381
 30
0.0
 40
0.117746
100
AcDbArc
 50
182.3034090000029
 51
206.7459829999976
  0
LINE
  5
D14
330
C46
100
AcDbEntity
  8
BLOCKS
100
AcDbLine
 10
0.0
 20
0.4368739999999889
 30
0.0
 11
0.0
 21
0.3531860000000506
 31
0.0
  0
ARC
  5
D15
330
C46
100
AcDbEntity
  8
BLOCKS
100
AcDbCircle
 10
0.0069999999999482
 20
0.4368090000000393
 30
0.0
 40
0.007
100
AcDbArc
 50
180.0
 51
270.0
  0
LINE
  5
D16
330
C46
100
AcDbEntity
  8
BLOCKS
100
AcDbLine
 10
0.0
 20
0.8350000000000363
 30
0.0
 11
0.0
 21
0.3531860000000506
 31
0.0
  0
LINE
  5
D17
330
C46
100
AcDbEntity
  8
BLOCKS
100
AcDbLine
 10
0.0099999999999909
 20
0.7907340000000432
 30
0.0
 11
0.0099999999999909
 21
0.4716590000000452
 31
0.0
  0
LINE
  5
D18
330
C46
100
AcDbEntity
  8
BLOCKS
100
AcDbLine
 10
0.0544609999999466
 20
0.3648030000000517
 30
0.0
 11
0.0
 21
0.3648030000000517
 31
0.0
  0
ARC
  5
D19
330
C46
100
AcDbEntity
  8
BLOCKS
100
AcDbCircle
 10
0.9959310000000414
 20
0.783411000000001
 30
0.0
 40
1.093652999999999
100
AcDbArc
 50
205.944992000001
 51
211.617934000003
  0
ARC
  5
D1A
330
C46
100
AcDbEntity
  8
BLOCKS
100
AcDbCircle
 10
0.081211000000053
 20
0.4462839999999915
 30
0.0
 40
0.07
100
AcDbArc
 50
205.9538900000036
 51
257.8010629999978
  0
LINE
  5
D1B
330
C46
100
AcDbEntity
  8
BLOCKS
100
AcDbLine
 10
0.1732849999999644
 20
0.4468739999999798
 30
0.0
 11
0.0099999999999909
 21
0.4468739999999798
 31
0.0
  0
ARC
  5
D1C
330
C46
100
AcDbEntity
  8
BLOCKS
100
AcDbCircle
 10
0.0199999999999818
 20
0.4716590000000452
 30
0.0
 40
0.01
100
AcDbArc
 50
180.0
 51
270.0
  0
LINE
  5
D1D
330
C46
100
AcDbEntity
  8
BLOCKS
100
AcDbLine
 10
0.1662850000000162
 20
0.4500000000000455
 30
0.0
 11
0.0099999999999909
 21
0.4500000000000455
 31
0.0
  0
ARC
  5
D1E
330
C46
100
AcDbEntity
  8
BLOCKS
100
AcDbCircle
 10
0.0156240000000025
 20
0.8220079999999825
 30
0.0
 40
0.005
100
AcDbArc
 50
351.675310000002
 51
90.0
  0
LINE
  5
D1F
330
C46
100
AcDbEntity
  8
BLOCKS
100
AcDbLine
 10
0.0180520000000115
 20
0.8040720000000192
 30
0.0
 11
0.0205710000000181
 21
0.8212839999999914
 31
0.0
  0
LINE
  5
D20
330
C46
100
AcDbEntity
  8
BLOCKS
100
AcDbLine
 10
0.1599390000000085
 20
0.7831710000000385
 30
0.0
 11
0.0163459999999987
 21
0.7831710000000385
 31
0.0
  0
LINE
  5
D21
330
C46
100
AcDbEntity
  8
BLOCKS
100
AcDbLine
 10
0.1662850000000162
 20
0.8350000000000363
 30
0.0
 11
0.0
 21
0.8350000000000363
 31
0.0
  0
ENDBLK
  5
D23
330
C46
100
AcDbEntity
  8
0
100
AcDbBlockEnd
  0
BLOCK
  5
D45
330
D31
100
AcDbEntity
  8
0
100
AcDbBlockBegin
  2
104410PL
 70
     0
 10
0.0
 20
0.0
 30
0.0
  3
104410PL
  1

  0
ARC
  5
D32
330
D31
100
AcDbEntity
  8
BLOCKS
100
AcDbCircle
 10
0.1775000000000091
 20
-0.0099999999999909
 30
0.0
 40
0.01
100
AcDbArc
 50
0.0
 51
90.0
  0
ARC
  5
D33
330
D31
100
AcDbEntity
  8
BLOCKS
100
AcDbCircle
 10
0.0874999999999773
 20
-0.4167770000000258
 30
0.0
 40
0.1
100
AcDbArc
 50
349.8474130000019
 51
0.0
  0
LINE
  5
D34
330
D31
100
AcDbEntity
  8
BLOCKS
100
AcDbLine
 10
0.1875
 20
-0.4167770000000258
 30
0.0
 11
0.1875
 21
-0.0099999999999909
 31
0.0
  0
ARC
  5
D35
330
D31
100
AcDbEntity
  8
BLOCKS
100
AcDbCircle
 10
-0.1775000000000091
 20
-0.0099999999999909
 30
0.0
 40
0.01
100
AcDbArc
 50
90.0
 51
180.0
  0
ARC
  5
D36
330
D31
100
AcDbEntity
  8
BLOCKS
100
AcDbCircle
 10
0.1192969999999605
 20
-0.2291390000000331
 30
0.0
 40
0.02
100
AcDbArc
 50
0.0
 51
49.11811900000041
  0
LINE
  5
D37
330
D31
100
AcDbEntity
  8
BLOCKS
100
AcDbLine
 10
0.1323869999999943
 20
-0.2140180000000112
 30
0.0
 11
0.050314999999955
 21
-0.1429709999999886
 31
0.0
  0
ARC
  5
D38
330
D31
100
AcDbEntity
  8
BLOCKS
100
AcDbCircle
 10
-0.1192969999999605
 20
-0.2291390000000331
 30
0.0
 40
0.02
100
AcDbArc
 50
130.8818809999996
 51
180.0
  0
LINE
  5
D39
330
D31
100
AcDbEntity
  8
BLOCKS
100
AcDbLine
 10
-0.1323869999999943
 20
-0.2140180000000112
 30
0.0
 11
-0.050314999999955
 21
-0.1429709999999886
 31
0.0
  0
CIRCLE
  5
D3A
330
D31
100
AcDbEntity
  8
BLOCKS
100
AcDbCircle
 10
0.0
 20
-0.2200000000000284
 30
0.0
 40
0.0225
  0
LINE
  5
D3B
330
D31
100
AcDbEntity
  8
BLOCKS
100
AcDbLine
 10
-0.139297000000056
 20
-0.4239970000001006
 30
0.0
 11
-0.139297000000056
 21
-0.2291390000000331
 31
0.0
  0
LINE
  5
D3C
330
D31
100
AcDbEntity
  8
BLOCKS
100
AcDbLine
 10
0.139297000000056
 20
-0.4239970000001006
 30
0.0
 11
0.139297000000056
 21
-0.2291390000000331
 31
0.0
  0
ARC
  5
D3D
330
D31
100
AcDbEntity
  8
BLOCKS
100
AcDbCircle
 10
-0.0874999999999773
 20
-0.4167770000000258
 30
0.0
 40
0.1
100
AcDbArc
 50
180.0
 51
190.152586999998
  0
LINE
  5
D3E
330
D31
100
AcDbEntity
  8
BLOCKS
100
AcDbLine
 10
-0.1875
 20
-0.4167770000000258
 30
0.0
 11
-0.1875
 21
-0.0099999999999909
 31
0.0
  0
CIRCLE
  5
D3F
330
D31
100
AcDbEntity
  8
BLOCKS
100
AcDbCircle
 10
0.0
 20
-0.0656380000000354
 30
0.0
 40
0.0175
  0
ARC
  5
D40
330
D31
100
AcDbEntity
  8
BLOCKS
100
AcDbCircle
 10
-0.0039789999999584
 20
-0.4056030000000431
 30
0.0
 40
0.144452
100
AcDbArc
 50
271.5785720000004
 51
352.6842630000011
  0
ARC
  5
D41
330
D31
100
AcDbEntity
  8
BLOCKS
100
AcDbCircle
 10
0.0039789999999584
 20
-0.4056030000000431
 30
0.0
 40
0.144452
100
AcDbArc
 50
187.3157369999989
 51
268.4214279999996
  0
ARC
  5
D42
330
D31
100
AcDbEntity
  8
BLOCKS
100
AcDbCircle
 10
0.0
 20
-0.4011080000000232
 30
0.0
 40
0.188892
100
AcDbArc
 50
190.152586999998
 51
349.8474130000019
  0
LINE
  5
D43
330
D31
100
AcDbEntity
  8
BLOCKS
100
AcDbLine
 10
0.1775000000000091
 20
0.0
 30
0.0
 11
-0.1775000000000091
 21
0.0
 31
0.0
  0
ARC
  5
D44
330
D31
100
AcDbEntity
  8
BLOCKS
100
AcDbCircle
 10
0.0
 20
0.2880349999999225
 30
0.0
 40
0.4339330000000001
100
AcDbArc
 50
244.399427
 51
295.6005730000001
  0
ENDBLK
  5
D46
330
D31
100
AcDbEntity
  8
0
100
AcDbBlockEnd
  0
BLOCK
  5
D62
330
D48
100
AcDbEntity
  8
0
100
AcDbBlockBegin
  2
104410AL
 70
     0
 10
0.0
 20
0.0
 30
0.0
  3
104410AL
  1

  0
ARC
  5
D49
330
D48
100
AcDbEntity
  8
BLOCKS
100
AcDbCircle
 10
0.5677840000000743
 20
0.3849999999999921
 30
0.0
 40
0.02
100
AcDbArc
 50
314.4555730000003
 51
90.0
  0
ARC
  5
D4A
330
D48
100
AcDbEntity
  8
BLOCKS
100
AcDbCircle
 10
1.770811000000094
 20
-0.8411089999999603
 30
0.0
 40
1.697735
100
AcDbArc
 50
134.4555730000003
 51
135.686546999998
  0
ARC
  5
D4B
330
D48
100
AcDbEntity
  8
BLOCKS
100
AcDbCircle
 10
1.101826000000073
 20
-0.0996209999999565
 30
0.0
 40
0.7039109999999999
100
AcDbArc
 50
140.8388779999968
 51
171.8638650000011
  0
ARC
  5
D4C
330
D48
100
AcDbEntity
  8
BLOCKS
100
AcDbCircle
 10
0.1478870000000825
 20
0.4059999999999503
 30
0.0
 40
0.001
100
AcDbArc
 50
190.1488329999966
 51
270.0
  0
LINE
  5
D4D
330
D48
100
AcDbEntity
  8
BLOCKS
100
AcDbLine
 10
0.1469030000000657
 20
0.4058240000000536
 30
0.0
 11
0.1459970000000794
 21
0.4108810000000188
 31
0.0
  0
LINE
  5
D4E
330
D48
100
AcDbEntity
  8
BLOCKS
100
AcDbLine
 10
0.0
 20
0.4049999999999739
 30
0.0
 11
0.0
 21
0.3724449999999718
 31
0.0
  0
ARC
  5
D4F
330
D48
100
AcDbEntity
  8
BLOCKS
100
AcDbCircle
 10
0.0099999999999909
 20
0.4049999999999739
 30
0.0
 40
0.01
100
AcDbArc
 50
90.0
 51
180.0
  0
ARC
  5
D50
330
D48
100
AcDbEntity
  8
BLOCKS
100
AcDbCircle
 10
0.0424090000000206
 20
0.3524449999999899
 30
0.0
 40
0.02
100
AcDbArc
 50
90.0
 51
187.745350999998
  0
LINE
  5
D51
330
D48
100
AcDbEntity
  8
BLOCKS
100
AcDbLine
 10
0.1410759999999982
 20
0.4149999999999648
 30
0.0
 11
0.0099999999999909
 21
0.4149999999999648
 31
0.0
  0
ARC
  5
D52
330
D48
100
AcDbEntity
  8
BLOCKS
100
AcDbCircle
 10
1.334842000000094
 20
0.5116080000000249
 30
0.0
 40
1.318694
100
AcDbArc
 50
189.7788990000035
 51
192.5419599999967
  0
ARC
  5
D53
330
D48
100
AcDbEntity
  8
BLOCKS
100
AcDbCircle
 10
1.334842000000094
 20
0.5116080000000249
 30
0.0
 40
1.338694
100
AcDbArc
 50
189.7788990000035
 51
192.5419599999967
  0
ARC
  5
D54
330
D48
100
AcDbEntity
  8
BLOCKS
100
AcDbCircle
 10
0.4829150000000482
 20
0.4123590000000389
 30
0.0
 40
0.464561
100
AcDbArc
 50
187.745350999998
 51
195.3318870000026
  0
ARC
  5
D55
330
D48
100
AcDbEntity
  8
BLOCKS
100
AcDbCircle
 10
0.4829150000000482
 20
0.4123590000000389
 30
0.0
 40
0.484561
100
AcDbArc
 50
184.7248599999975
 51
195.3318870000026
  0
ARC
  5
D56
330
D48
100
AcDbEntity
  8
BLOCKS
100
AcDbCircle
 10
0.1410759999999982
 20
0.4099999999999694
 30
0.0
 40
0.005
100
AcDbArc
 50
10.14883299999668
 51
90.0
  0
LINE
  5
D57
330
D48
100
AcDbEntity
  8
BLOCKS
100
AcDbLine
 10
0.0424090000000206
 20
0.3724449999999718
 30
0.0
 11
0.299137000000087
 21
0.3724449999999718
 31
0.0
  0
LINE
  5
D58
330
D48
100
AcDbEntity
  8
BLOCKS
100
AcDbLine
 10
0.2172050000000354
 20
0.1902649999999539
 30
0.0
 11
0.2172050000000354
 21
0.06116499999996
 31
0.0
  0
LINE
  5
D59
330
D48
100
AcDbEntity
  8
BLOCKS
100
AcDbLine
 10
0.0600000000000591
 20
0.1262349999999515
 30
0.0
 11
0.0600000000000591
 21
0.0199999999999818
 31
0.0
  0
LINE
  5
D5A
330
D48
100
AcDbEntity
  8
BLOCKS
100
AcDbLine
 10
0.0400000000000773
 20
0.1262349999999515
 30
0.0
 11
0.0400000000000773
 21
0.0
 31
0.0
  0
ARC
  5
D5B
330
D48
100
AcDbEntity
  8
BLOCKS
100
AcDbCircle
 10
0.1800410000000738
 20
0.0663110000000415
 30
0.0
 40
0.037519
100
AcDbArc
 50
187.8839009999987
 51
352.1160990000013
  0
LINE
  5
D5C
330
D48
100
AcDbEntity
  8
BLOCKS
100
AcDbLine
 10
0.1428760000000011
 20
0.2756259999999884
 30
0.0
 11
0.1428760000000011
 21
0.06116499999996
 31
0.0
  0
ARC
  5
D5D
330
D48
100
AcDbEntity
  8
BLOCKS
100
AcDbCircle
 10
-0.8441429999999172
 20
0.0631170000000339
 30
0.0
 40
0.8863929999999999
100
AcDbArc
 50
4.083320000002033
 51
10.25391200000143
  0
ARC
  5
D5E
330
D48
100
AcDbEntity
  8
BLOCKS
100
AcDbCircle
 10
-0.8441429999999172
 20
0.0631170000000339
 30
0.0
 40
0.9063929999999999
100
AcDbArc
 50
4.083320000002033
 51
10.25391200000143
  0
ARC
  5
D5F
330
D48
100
AcDbEntity
  8
BLOCKS
100
AcDbCircle
 10
0.2748139999999921
 20
0.3560220000000538
 30
0.0
 40
0.12941
100
AcDbArc
 50
172.7093220000001
 51
262.3840870000007
  0
LINE
  5
D60
330
D48
100
AcDbEntity
  8
BLOCKS
100
AcDbLine
 10
0.4050000000000864
 20
0.0
 30
0.0
 11
0.0400000000000773
 21
0.0
 31
0.0
  0
LINE
  5
D61
330
D48
100
AcDbEntity
  8
BLOCKS
100
AcDbLine
 10
0.5677840000000743
 20
0.4049999999999739
 30
0.0
 11
0.1478870000000825
 21
0.4049999999999739
 31
0.0
  0
ENDBLK
  5
D63
330
D48
100
AcDbEntity
  8
0
100
AcDbBlockEnd
  0
BLOCK
  5
D73
330
D65
100
AcDbEntity
  8
0
100
AcDbBlockBegin
  2
104410AF
 70
     0
 10
0.0
 20
0.0
 30
0.0
  3
104410AF
  1

  0
ARC
  5
D66
330
D65
100
AcDbEntity
  8
BLOCKS
100
AcDbCircle
 10
0.1765589999999975
 20
0.4049999999999728
 30
0.0
 40
0.01
100
AcDbArc
 50
336.1765490000014
 51
90.0
  0
LINE
  5
D67
330
D65
100
AcDbEntity
  8
BLOCKS
100
AcDbLine
 10
0.1025499999999511
 20
0.0813010000000532
 30
0.0
 11
0.1025499999999511
 21
0.0099999999999909
 31
0.0
  0
ARC
  5
D68
330
D65
100
AcDbEntity
  8
BLOCKS
100
AcDbCircle
 10
0.0925499999999602
 20
0.0099999999999909
 30
0.0
 40
0.01
100
AcDbArc
 50
270.0
 51
0.0
  0
ARC
  5
D69
330
D65
100
AcDbEntity
  8
BLOCKS
100
AcDbCircle
 10
0.4025500000000193
 20
0.0813010000000532
 30
0.0
 40
0.3
100
AcDbArc
 50
171.4607289999984
 51
180.0
  0
ARC
  5
D6A
330
D65
100
AcDbEntity
  8
BLOCKS
100
AcDbCircle
 10
-0.0925499999999602
 20
0.0099999999999909
 30
0.0
 40
0.01
100
AcDbArc
 50
180.0
 51
270.0
  0
LINE
  5
D6B
330
D65
100
AcDbEntity
  8
BLOCKS
100
AcDbLine
 10
-0.1025499999999511
 20
0.0813010000000532
 30
0.0
 11
-0.1025499999999511
 21
0.0099999999999909
 31
0.0
  0
ARC
  5
D6C
330
D65
100
AcDbEntity
  8
BLOCKS
100
AcDbCircle
 10
-0.4025500000000193
 20
0.0813010000000532
 30
0.0
 40
0.3
100
AcDbArc
 50
0.0
 51
8.539271000001605
  0
LINE
  5
D6D
330
D65
100
AcDbEntity
  8
BLOCKS
100
AcDbLine
 10
0.0925499999999602
 20
0.0
 30
0.0
 11
-0.0925499999999602
 21
0.0
 31
0.0
  0
ARC
  5
D6E
330
D65
100
AcDbEntity
  8
BLOCKS
100
AcDbCircle
 10
-0.1765589999999975
 20
0.4049999999999728
 30
0.0
 40
0.01
100
AcDbArc
 50
90.0
 51
203.8234509999985
  0
ARC
  5
D6F
330
D65
100
AcDbEntity
  8
BLOCKS
100
AcDbCircle
 10
-1.170986999999968
 20
-0.0340810000000147
 30
0.0
 40
1.077050999999999
100
AcDbArc
 50
8.539271000001605
 51
23.82345099999856
  0
ARC
  5
D70
330
D65
100
AcDbEntity
  8
BLOCKS
100
AcDbCircle
 10
1.170986999999968
 20
-0.0340810000000147
 30
0.0
 40
1.077050999999999
100
AcDbArc
 50
156.1765490000014
 51
171.4607289999984
  0
LINE
  5
D71
330
D65
100
AcDbEntity
  8
BLOCKS
100
AcDbLine
 10
0.1765589999999975
 20
0.4149999999999637
 30
0.0
 11
-0.1765589999999975
 21
0.4149999999999637
 31
0.0
  0
LINE
  5
D72
330
D65
100
AcDbEntity
  8
BLOCKS
100
AcDbLine
 10
0.1865589999999884
 20
0.4049999999999728
 30
0.0
 11
-0.1865589999999884
 21
0.4049999999999728
 31
0.0
  0
ENDBLK
  5
D74
330
D65
100
AcDbEntity
  8
0
100
AcDbBlockEnd
  0
BLOCK
  5
DCA
330
D76
100
AcDbEntity
  8
0
100
AcDbBlockBegin
  2
104410CT
 70
     0
 10
0.0
 20
0.0
 30
0.0
  3
104410CT
  1

  0
ARC
  5
D77
330
D76
100
AcDbEntity
  8
BLOCKS
100
AcDbCircle
 10
0.5677840000000743
 20
0.3849999999999909
 30
0.0
 40
0.02
100
AcDbArc
 50
314.4555730000003
 51
110.3301470000025
  0
ARC
  5
D78
330
D76
100
AcDbEntity
  8
BLOCKS
100
AcDbCircle
 10
0.5670530000001009
 20
0.3931549999999788
 30
0.0
 40
0.003
100
AcDbArc
 50
109.2626949999984
 51
153.3471549999988
  0
ARC
  5
D79
330
D76
100
AcDbEntity
  8
BLOCKS
100
AcDbCircle
 10
0.5693620000000692
 20
0.386545999999953
 30
0.0
 40
0.01
100
AcDbArc
 50
314.3818739999992
 51
109.2626949999984
  0
ARC
  5
D7A
330
D76
100
AcDbEntity
  8
BLOCKS
100
AcDbCircle
 10
1.770811000000094
 20
-0.8411089999999603
 30
0.0
 40
1.697735
100
AcDbArc
 50
134.4555730000003
 51
135.686546999998
  0
ARC
  5
D7B
330
D76
100
AcDbEntity
  8
BLOCKS
100
AcDbCircle
 10
0.5508310000000165
 20
0.3495930000000271
 30
0.0
 40
0.003
100
AcDbArc
 50
135.6958299999993
 51
140.7077600000001
  0
ARC
  5
D7C
330
D76
100
AcDbEntity
  8
BLOCKS
100
AcDbCircle
 10
0.5643100000000914
 20
0.3943769999999631
 30
0.0
 40
0.01
100
AcDbArc
 50
110.3301470000025
 51
153.3126030000022
  0
ARC
  5
D7D
330
D76
100
AcDbEntity
  8
BLOCKS
100
AcDbCircle
 10
1.770811000000094
 20
-0.8411089999999603
 30
0.0
 40
1.707735
100
AcDbArc
 50
134.3818739999992
 51
135.6958299999993
  0
ARC
  5
D7E
330
D76
100
AcDbEntity
  8
BLOCKS
100
AcDbCircle
 10
0.3600030000000061
 20
0.4970759999999928
 30
0.0
 40
0.218667
100
AcDbArc
 50
305.3838269999979
 51
333.3126030000022
  0
ARC
  5
D7F
330
D76
100
AcDbEntity
  8
BLOCKS
100
AcDbCircle
 10
0.3980300000000625
 20
0.4692489999999907
 30
0.0
 40
0.209591
100
AcDbArc
 50
253.1061100000002
 51
260.6310780000027
  0
ARC
  5
D80
330
D76
100
AcDbEntity
  8
BLOCKS
100
AcDbCircle
 10
0.3842270000000099
 20
0.2596419999999853
 30
0.0
 40
0.01
100
AcDbArc
 50
95.82527099999873
 51
184.9270569999994
  0
ARC
  5
D81
330
D76
100
AcDbEntity
  8
BLOCKS
100
AcDbCircle
 10
0.3708120000000008
 20
0.4818579999999884
 30
0.0
 40
0.2
100
AcDbArc
 50
270.0
 51
305.3838269999979
  0
ARC
  5
D82
330
D76
100
AcDbEntity
  8
BLOCKS
100
AcDbCircle
 10
0.3600030000000061
 20
0.4970759999999928
 30
0.0
 40
0.228667
100
AcDbArc
 50
275.8252709999988
 51
333.3471549999988
  0
ARC
  5
D83
330
D76
100
AcDbEntity
  8
BLOCKS
100
AcDbCircle
 10
0.396614999999997
 20
0.034434000000033
 30
0.0
 40
0.003
100
AcDbArc
 50
184.9270569999994
 51
350.8078509999983
  0
ARC
  5
D84
330
D76
100
AcDbEntity
  8
BLOCKS
100
AcDbCircle
 10
0.689106000000038
 20
0.0744039999999586
 30
0.0
 40
0.308194
100
AcDbArc
 50
187.6611840000002
 51
193.9704140000022
  0
LINE
  5
D85
330
D76
100
AcDbEntity
  8
BLOCKS
100
AcDbLine
 10
0.3639100000000326
 20
0.2624540000000479
 30
0.0
 11
0.3836630000000696
 21
0.0333180000000084
 31
0.0
  0
LINE
  5
D86
330
D76
100
AcDbEntity
  8
BLOCKS
100
AcDbLine
 10
0.3742640000000392
 20
0.258782999999994
 30
0.0
 11
0.3936260000000402
 21
0.0341769999999997
 31
0.0
  0
ARC
  5
D87
330
D76
100
AcDbEntity
  8
BLOCKS
100
AcDbCircle
 10
1.103124000000093
 20
-0.1023290000000543
 30
0.0
 40
0.716626
100
AcDbArc
 50
140.7077600000001
 51
169.0370599999992
  0
ARC
  5
D88
330
D76
100
AcDbEntity
  8
BLOCKS
100
AcDbCircle
 10
1.101826000000073
 20
-0.0996209999999565
 30
0.0
 40
0.7039109999999999
100
AcDbArc
 50
140.8388779999968
 51
171.8638650000011
  0
LINE
  5
D89
330
D76
100
AcDbEntity
  8
BLOCKS
100
AcDbLine
 10
0.2845290000000204
 20
0.2687029999999595
 30
0.0
 11
0.2764700000000175
 21
0.260644999999954
 31
0.0
  0
LINE
  5
D8A
330
D76
100
AcDbEntity
  8
BLOCKS
100
AcDbLine
 10
0.2764700000000175
 20
0.260644999999954
 30
0.0
 11
0.2764700000000175
 21
0.2318579999999883
 31
0.0
  0
LWPOLYLINE
  5
D8B
330
D76
100
AcDbEntity
  8
BLOCKS
100
AcDbPolyline
 90
        3
 70
     0
 43
0.0
 10
0.2614700000000312
 20
0.2318579999999883
 10
0.2614700000000312
 20
0.2668579999999565
 10
0.2764700000000175
 20
0.2818580000000565
  0
ARC
  5
D8C
330
D76
100
AcDbEntity
  8
BLOCKS
100
AcDbCircle
 10
0.1942150000000993
 20
0.311774000000014
 30
0.0
 40
0.04
100
AcDbArc
 50
190.1488329999966
 51
264.1415139999996
  0
ARC
  5
D8D
330
D76
100
AcDbEntity
  8
BLOCKS
100
AcDbCircle
 10
0.1942000000000235
 20
0.3118580000000293
 30
0.0
 40
0.03
100
AcDbArc
 50
190.1488329999966
 51
270.0
  0
LINE
  5
D8E
330
D76
100
AcDbEntity
  8
BLOCKS
100
AcDbLine
 10
0.2014700000000857
 20
0.2318579999999883
 30
0.0
 11
0.2014700000000857
 21
0.2356170000000475
 31
0.0
  0
LINE
  5
D8F
330
D76
100
AcDbEntity
  8
BLOCKS
100
AcDbLine
 10
0.1508929999999964
 20
0.2356170000000475
 30
0.0
 11
0.2014700000000857
 21
0.2356170000000475
 31
0.0
  0
LINE
  5
D90
330
D76
100
AcDbEntity
  8
BLOCKS
100
AcDbLine
 10
0.2014700000000857
 20
0.2562420000000429
 30
0.0
 11
0.2164700000000721
 21
0.2562420000000429
 31
0.0
  0
LWPOLYLINE
  5
D91
330
D76
100
AcDbEntity
  8
BLOCKS
100
AcDbPolyline
 90
        2
 70
     0
 43
0.0
 10
0.2164700000000721
 20
0.2456170000000384
 10
0.2164700000000721
 20
0.2318579999999883
  0
LWPOLYLINE
  5
D92
330
D76
100
AcDbEntity
  8
BLOCKS
100
AcDbPolyline
 90
        3
 70
     0
 43
0.0
 10
0.2014700000000857
 20
0.281880000000001
 10
0.2164700000000721
 20
0.2668579999999565
 10
0.2164700000000721
 20
0.2562420000000429
  0
LINE
  5
D93
330
D76
100
AcDbEntity
  8
BLOCKS
100
AcDbLine
 10
0.2014700000000857
 20
0.2562420000000429
 30
0.0
 11
0.2014700000000857
 21
0.260644999999954
 31
0.0
  0
LINE
  5
D94
330
D76
100
AcDbEntity
  8
BLOCKS
100
AcDbLine
 10
0.1587450000000672
 20
0.2456170000000384
 30
0.0
 11
0.2164700000000721
 21
0.2456170000000384
 31
0.0
  0
LINE
  5
D95
330
D76
100
AcDbEntity
  8
BLOCKS
100
AcDbLine
 10
0.1901320000000623
 20
0.2719829999999774
 30
0.0
 11
0.2014700000000857
 21
0.260644999999954
 31
0.0
  0
ARC
  5
D96
330
D76
100
AcDbEntity
  8
BLOCKS
100
AcDbCircle
 10
0.1942300000000614
 20
0.3322480000000496
 30
0.0
 40
0.03
100
AcDbArc
 50
180.0
 51
180.0
  0
LINE
  5
D97
330
D76
100
AcDbEntity
  8
BLOCKS
100
AcDbLine
 10
0.2764700000000175
 20
0.2818580000000565
 30
0.0
 11
0.1942000000000235
 21
0.2818580000000565
 31
0.0
  0
LINE
  5
D98
330
D76
100
AcDbEntity
  8
BLOCKS
100
AcDbLine
 10
0.2764700000000175
 20
0.2318579999999883
 30
0.0
 11
0.2014700000000857
 21
0.2318579999999883
 31
0.0
  0
LWPOLYLINE
  5
D99
330
D76
100
AcDbEntity
  8
BLOCKS
100
AcDbPolyline
 90
        2
 70
     0
 43
0.0
 10
0.2614700000000312
 20
0.2668579999999565
 10
0.2164700000000721
 20
0.2668579999999565
  0
LINE
  5
D9A
330
D76
100
AcDbEntity
  8
BLOCKS
100
AcDbLine
 10
0.1646690000000035
 20
0.3065709999999626
 30
0.0
 11
0.1459970000000794
 21
0.4108810000000176
 31
0.0
  0
LINE
  5
D9B
330
D76
100
AcDbEntity
  8
BLOCKS
100
AcDbLine
 10
0.1405280000000175
 20
0.3846849999999904
 30
0.0
 11
0.1380710000000818
 21
0.3984100000000126
 31
0.0
  0
LINE
  5
D9C
330
D76
100
AcDbEntity
  8
BLOCKS
100
AcDbLine
 10
0.130196000000069
 20
0.4049999999999728
 30
0.0
 11
0.1272200000000794
 21
0.4049999999999728
 31
0.0
  0
ARC
  5
D9D
330
D76
100
AcDbEntity
  8
BLOCKS
100
AcDbCircle
 10
0.1272200000000794
 20
0.3970000000000482
 30
0.0
 40
0.008
100
AcDbArc
 50
90.0
 51
190.1488329999966
  0
ARC
  5
D9E
330
D76
100
AcDbEntity
  8
BLOCKS
100
AcDbCircle
 10
0.130196000000069
 20
0.3970000000000482
 30
0.0
 40
0.008
100
AcDbArc
 50
10.14883299999668
 51
90.0
  0
ARC
  5
D9F
330
D76
100
AcDbEntity
  8
BLOCKS
100
AcDbCircle
 10
0.1033170000000609
 20
0.3999999999999772
 30
0.0
 40
0.005
100
AcDbArc
 50
10.14883299999668
 51
90.0
  0
LINE
  5
DA0
330
D76
100
AcDbEntity
  8
BLOCKS
100
AcDbLine
 10
0.0825000000000955
 20
0.4149999999999637
 30
0.0
 11
0.0825000000000955
 21
0.4049999999999728
 31
0.0
  0
LINE
  5
DA1
330
D76
100
AcDbEntity
  8
BLOCKS
100
AcDbLine
 10
0.0650000000000546
 20
0.4149999999999637
 30
0.0
 11
0.0650000000000546
 21
0.4049999999999728
 31
0.0
  0
ARC
  5
DA2
330
D76
100
AcDbEntity
  8
BLOCKS
100
AcDbCircle
 10
0.018807000000038
 20
0.3774449999999661
 30
0.0
 40
0.005
100
AcDbArc
 50
270.0
 51
341.8801010000012
  0
ARC
  5
DA3
330
D76
100
AcDbEntity
  8
BLOCKS
100
AcDbCircle
 10
0.0367090000000872
 20
0.3999999999999772
 30
0.0
 40
0.005
100
AcDbArc
 50
90.0
 51
161.8801010000012
  0
ARC
  5
DA4
330
D76
100
AcDbEntity
  8
BLOCKS
100
AcDbCircle
 10
0.0120000000000573
 20
0.3844450000000279
 30
0.0
 40
0.002
100
AcDbArc
 50
180.0
 51
270.0
  0
ARC
  5
DA5
330
D76
100
AcDbEntity
  8
BLOCKS
100
AcDbCircle
 10
0.0127909999999929
 20
0.3874449999999569
 30
0.0
 40
0.005
100
AcDbArc
 50
270.0
 51
346.5682979999974
  0
ARC
  5
DA6
330
D76
100
AcDbEntity
  8
BLOCKS
100
AcDbCircle
 10
0.0157900000000382
 20
0.3999999999999772
 30
0.0
 40
0.005
100
AcDbArc
 50
346.5682979999974
 51
90.0
  0
ARC
  5
DA7
330
D76
100
AcDbEntity
  8
BLOCKS
100
AcDbCircle
 10
0.0150000000001001
 20
0.3999999999999772
 30
0.0
 40
0.005
100
AcDbArc
 50
90.0
 51
180.0
  0
LINE
  5
DA8
330
D76
100
AcDbEntity
  8
BLOCKS
100
AcDbLine
 10
0.0157900000000382
 20
0.4049999999999728
 30
0.0
 11
0.0150000000001001
 21
0.4049999999999728
 31
0.0
  0
LINE
  5
DA9
330
D76
100
AcDbEntity
  8
BLOCKS
100
AcDbLine
 10
0.0120000000000573
 20
0.3824449999999615
 30
0.0
 11
0.0127909999999929
 21
0.3824449999999615
 31
0.0
  0
LINE
  5
DAA
330
D76
100
AcDbEntity
  8
BLOCKS
100
AcDbLine
 10
0.0176549999999907
 20
0.3862830000000485
 30
0.0
 11
0.0206530000000385
 21
0.3988389999999526
 31
0.0
  0
LINE
  5
DAB
330
D76
100
AcDbEntity
  8
BLOCKS
100
AcDbLine
 10
0.0235590000000912
 20
0.3758900000000267
 30
0.0
 11
0.031957000000034
 21
0.4015550000000303
 31
0.0
  0
LINE
  5
DAC
330
D76
100
AcDbEntity
  8
BLOCKS
100
AcDbLine
 10
0.0099999999999909
 20
0.3999999999999772
 30
0.0
 11
0.0099999999999909
 21
0.3844450000000279
 31
0.0
  0
LINE
  5
DAD
330
D76
100
AcDbEntity
  8
BLOCKS
100
AcDbLine
 10
0.0475000000000137
 20
0.4149999999999637
 30
0.0
 11
0.0475000000000137
 21
0.4049999999999728
 31
0.0
  0
LINE
  5
DAE
330
D76
100
AcDbEntity
  8
BLOCKS
100
AcDbLine
 10
0.0
 20
0.3724449999999706
 30
0.0
 11
0.018807000000038
 21
0.3724449999999706
 31
0.0
  0
ARC
  5
DAF
330
D76
100
AcDbEntity
  8
BLOCKS
100
AcDbCircle
 10
0.0099999999999909
 20
0.4049999999999728
 30
0.0
 40
0.01
100
AcDbArc
 50
90.0
 51
180.0
  0
LINE
  5
DB0
330
D76
100
AcDbEntity
  8
BLOCKS
100
AcDbLine
 10
0.0
 20
0.4049999999999728
 30
0.0
 11
0.0
 21
0.3724449999999706
 31
0.0
  0
LINE
  5
DB1
330
D76
100
AcDbEntity
  8
BLOCKS
100
AcDbLine
 10
0.1033170000000609
 20
0.4049999999999728
 30
0.0
 11
0.0367090000000872
 21
0.4049999999999728
 31
0.0
  0
LINE
  5
DB2
330
D76
100
AcDbEntity
  8
BLOCKS
100
AcDbLine
 10
0.1410759999999982
 20
0.4149999999999637
 30
0.0
 11
0.0099999999999909
 21
0.4149999999999637
 31
0.0
  0
ARC
  5
DB3
330
D76
100
AcDbEntity
  8
BLOCKS
100
AcDbCircle
 10
0.1322020000000066
 20
0.2386390000000347
 30
0.0
 40
0.005
100
AcDbArc
 50
347.2519340000031
 51
10.14883299999668
  0
LINE
  5
DB4
330
D76
100
AcDbEntity
  8
BLOCKS
100
AcDbLine
 10
0.1371240000000853
 20
0.2395199999999704
 30
0.0
 11
0.1082390000000259
 21
0.4008810000000267
 31
0.0
  0
LINE
  5
DB5
330
D76
100
AcDbEntity
  8
BLOCKS
100
AcDbLine
 10
0.1257669999999962
 20
0.302962999999977
 30
0.0
 11
0.1082390000000259
 21
0.4008810000000267
 31
0.0
  0
LINE
  5
DB6
330
D76
100
AcDbEntity
  8
BLOCKS
100
AcDbLine
 10
0.1439790000000585
 20
0.2579739999999902
 30
0.0
 11
0.1193450000000666
 21
0.3955899999999701
 31
0.0
  0
ARC
  5
DB7
330
D76
100
AcDbEntity
  8
BLOCKS
100
AcDbCircle
 10
0.4829150000000482
 20
0.4123590000000377
 30
0.0
 40
0.484561
100
AcDbArc
 50
184.7248599999975
 51
195.3318870000026
  0
LINE
  5
DB8
330
D76
100
AcDbEntity
  8
BLOCKS
100
AcDbLine
 10
0.1439540000000079
 20
0.3655439999999999
 30
0.0
 11
0.1539750000000595
 21
0.3663139999999885
 31
0.0
  0
LINE
  5
DB9
330
D76
100
AcDbEntity
  8
BLOCKS
100
AcDbLine
 10
0.1405280000000175
 20
0.3846849999999904
 30
0.0
 11
0.1505490000000691
 21
0.3854559999999765
 31
0.0
  0
LINE
  5
DBA
330
D76
100
AcDbEntity
  8
BLOCKS
100
AcDbLine
 10
0.1548410000000331
 20
0.3047249999999622
 30
0.0
 11
0.1439540000000079
 21
0.3655439999999999
 31
0.0
  0
ARC
  5
DBB
330
D76
100
AcDbEntity
  8
BLOCKS
100
AcDbCircle
 10
0.1587450000000672
 20
0.2606170000000247
 30
0.0
 40
0.015
100
AcDbArc
 50
190.1488329999966
 51
270.0
  0
ARC
  5
DBC
330
D76
100
AcDbEntity
  8
BLOCKS
100
AcDbCircle
 10
0.1410759999999982
 20
0.4099999999999682
 30
0.0
 40
0.005
100
AcDbArc
 50
10.14883299999668
 51
90.0
  0
ARC
  5
DBD
330
D76
100
AcDbEntity
  8
BLOCKS
100
AcDbCircle
 10
0.1508929999999964
 20
0.230617000000052
 30
0.0
 40
0.005
100
AcDbArc
 50
90.0
 51
167.2519340000031
  0
ARC
  5
DBE
330
D76
100
AcDbEntity
  8
BLOCKS
100
AcDbCircle
 10
0.1949309999999968
 20
0.0732510000000275
 30
0.0
 40
0.044459
100
AcDbArc
 50
187.8839009999987
 51
352.1160990000013
  0
ARC
  5
DBF
330
D76
100
AcDbEntity
  8
BLOCKS
100
AcDbCircle
 10
-0.8441429999999172
 20
0.0631170000000339
 30
0.0
 40
0.8863929999999999
100
AcDbArc
 50
4.083320000002033
 51
10.25391200000139
  0
LINE
  5
DC0
330
D76
100
AcDbEntity
  8
BLOCKS
100
AcDbLine
 10
0.0400000000000773
 20
0.1262349999999515
 30
0.0
 11
0.0400000000000773
 21
0.0
 31
0.0
  0
LINE
  5
DC1
330
D76
100
AcDbEntity
  8
BLOCKS
100
AcDbLine
 10
0.0778250000000753
 20
0.0
 30
0.0
 11
0.1460160000000314
 21
0.2317199999999957
 31
0.0
  0
LINE
  5
DC2
330
D76
100
AcDbEntity
  8
BLOCKS
100
AcDbLine
 10
0.0674220000000787
 20
0.0
 30
0.0
 11
0.1370790000000852
 21
0.2375349999999798
 31
0.0
  0
ARC
  5
DC3
330
D76
100
AcDbEntity
  8
BLOCKS
100
AcDbCircle
 10
1.334842000000094
 20
0.5116080000000239
 30
0.0
 40
1.338694
100
AcDbArc
 50
189.7788990000035
 51
192.5419599999967
  0
LINE
  5
DC4
330
D76
100
AcDbEntity
  8
BLOCKS
100
AcDbLine
 10
0.2389699999999948
 20
0.2260599999999613
 30
0.0
 11
0.2389699999999948
 21
0.0671529999999621
 31
0.0
  0
LINE
  5
DC5
330
D76
100
AcDbEntity
  8
BLOCKS
100
AcDbLine
 10
0.1508929999999964
 20
0.2356170000000475
 30
0.0
 11
0.1508929999999964
 21
0.0671529999999621
 31
0.0
  0
LINE
  5
DC6
330
D76
100
AcDbEntity
  8
BLOCKS
100
AcDbLine
 10
0.5677840000000743
 20
0.4049999999999728
 30
0.0
 11
0.1470500000000356
 21
0.4049999999999728
 31
0.0
  0
LINE
  5
DC7
330
D76
100
AcDbEntity
  8
BLOCKS
100
AcDbLine
 10
0.4050000000000864
 20
0.0
 30
0.0
 11
0.0400000000000773
 21
0.0
 31
0.0
  0
LINE
  5
DC8
330
D76
100
AcDbEntity
  8
BLOCKS
100
AcDbLine
 10
0.3708120000000008
 20
0.2818580000000565
 30
0.0
 11
0.2764700000000175
 21
0.2818580000000565
 31
0.0
  0
LINE
  5
DC9
330
D76
100
AcDbEntity
  8
BLOCKS
100
AcDbLine
 10
0.2845290000000204
 20
0.2687029999999595
 30
0.0
 11
0.3371220000000221
 21
0.2687029999999595
 31
0.0
  0
ENDBLK
  5
DCB
330
D76
100
AcDbEntity
  8
0
100
AcDbBlockEnd
  0
BLOCK
  5
E06
330
DD7
100
AcDbEntity
  8
0
100
AcDbBlockBegin
  2
104320PL
 70
     0
 10
0.0
 20
0.0
 30
0.0
  3
104320PL
  1

  0
ARC
  5
DD8
330
DD7
100
AcDbEntity
  8
BLOCKS
100
AcDbCircle
 10
0.2572390000000269
 20
-0.0099999999999909
 30
0.0
 40
0.01
100
AcDbArc
 50
0.0
 51
90.0
  0
ARC
  5
DD9
330
DD7
100
AcDbEntity
  8
BLOCKS
100
AcDbCircle
 10
0.2119740000000547
 20
-0.4332329999999735
 30
0.0
 40
0.197876
100
AcDbArc
 50
54.84186699999821
 51
76.62798900000305
  0
ARC
  5
DDA
330
DD7
100
AcDbEntity
  8
BLOCKS
100
AcDbCircle
 10
0.3159630000000106
 20
-0.2775000000000324
 30
0.0
 40
0.018384
100
AcDbArc
 50
12.80481300000205
 51
50.28689799999785
  0
ARC
  5
DDB
330
DD7
100
AcDbEntity
  8
BLOCKS
100
AcDbCircle
 10
0.28129899999999
 20
0.0430330000000367
 30
0.0
 40
0.284731
100
AcDbArc
 50
255.8899780000026
 51
265.2533620000006
  0
LINE
  5
DDC
330
DD7
100
AcDbEntity
  8
BLOCKS
100
AcDbLine
 10
0.2672390000000178
 20
-0.1017910000000484
 30
0.0
 11
0.334720999999945
 21
-0.2427390000000293
 31
0.0
  0
ARC
  5
DDD
330
DD7
100
AcDbEntity
  8
BLOCKS
100
AcDbCircle
 10
0.2402560000000449
 20
-0.2793149999999974
 30
0.0
 40
0.101299
100
AcDbArc
 50
11.49425600000196
 51
21.16599300000114
  0
ARC
  5
DDE
330
DD7
100
AcDbEntity
  8
BLOCKS
100
AcDbCircle
 10
-0.0075940000000401
 20
-0.2205480000000085
 30
0.0
 40
0.2856560000000001
100
AcDbArc
 50
325.0205760000021
 51
348.0263210000018
  0
ARC
  5
DDF
330
DD7
100
AcDbEntity
  8
BLOCKS
100
AcDbCircle
 10
-0.0075940000000401
 20
-0.2205480000000085
 30
0.0
 40
0.3556560000000001
100
AcDbArc
 50
325.0205760000021
 51
344.4075059999993
  0
ARC
  5
DE0
330
DD7
100
AcDbEntity
  8
BLOCKS
100
AcDbCircle
 10
0.2447859999999764
 20
-0.2802590000000014
 30
0.0
 40
0.097065
100
AcDbArc
 50
338.3017649999976
 51
12.57362099999851
  0
ARC
  5
DE1
330
DD7
100
AcDbEntity
  8
BLOCKS
100
AcDbCircle
 10
0.2447859999999764
 20
-0.2802590000000014
 30
0.0
 40
0.027065
100
AcDbArc
 50
0.9496699999975966
 51
12.57362099999851
  0
LINE
  5
DE2
330
DD7
100
AcDbEntity
  8
BLOCKS
100
AcDbLine
 10
0.2672390000000178
 20
-0.1017910000000484
 30
0.0
 11
0.2672390000000178
 21
-0.0099999999999909
 31
0.0
  0
ARC
  5
DE3
330
DD7
100
AcDbEntity
  8
BLOCKS
100
AcDbCircle
 10
0.050296000000003
 20
-0.2768610000000541
 30
0.0
 40
0.2762100000000001
100
AcDbArc
 50
300.3390029999983
 51
327.8126560000009
  0
ARC
  5
DE4
330
DD7
100
AcDbEntity
  8
BLOCKS
100
AcDbCircle
 10
-0.2572390000000269
 20
-0.0099999999999909
 30
0.0
 40
0.01
100
AcDbArc
 50
90.0
 51
180.0
  0
ARC
  5
DE5
330
DD7
100
AcDbEntity
  8
BLOCKS
100
AcDbCircle
 10
0.6790919999999688
 20
0.4872319999999491
 30
0.0
 40
0.8670469999999999
100
AcDbArc
 50
231.6947760000001
 51
234.2749750000001
  0
ARC
  5
DE6
330
DD7
100
AcDbEntity
  8
BLOCKS
100
AcDbCircle
 10
1.124864999999999
 20
1.051570999999967
 30
0.0
 40
1.586208
100
AcDbArc
 50
229.7553760000007
 51
231.6947760000001
  0
ARC
  5
DE7
330
DD7
100
AcDbEntity
  8
BLOCKS
100
AcDbCircle
 10
0.0673440000000483
 20
-0.1978599999999915
 30
0.0
 40
0.050688
100
AcDbArc
 50
49.75537600000066
 51
70.64614499999722
  0
ARC
  5
DE8
330
DD7
100
AcDbEntity
  8
BLOCKS
100
AcDbCircle
 10
-1.124864999999999
 20
1.051570999999967
 30
0.0
 40
1.586208
100
AcDbArc
 50
308.3052239999998
 51
310.2446239999993
  0
ARC
  5
DE9
330
DD7
100
AcDbEntity
  8
BLOCKS
100
AcDbCircle
 10
-0.0673440000000483
 20
-0.1978599999999915
 30
0.0
 40
0.050688
100
AcDbArc
 50
109.3538550000027
 51
130.2446239999993
  0
ARC
  5
DEA
330
DD7
100
AcDbEntity
  8
BLOCKS
100
AcDbCircle
 10
0.0
 20
0.074408999999946
 30
0.0
 40
0.239699
100
AcDbArc
 50
242.0121940000014
 51
297.9878059999986
  0
CIRCLE
  5
DEB
330
DD7
100
AcDbEntity
  8
BLOCKS
100
AcDbCircle
 10
0.0
 20
-0.2200000000000279
 30
0.0
 40
0.0225
  0
CIRCLE
  5
DEC
330
DD7
100
AcDbEntity
  8
BLOCKS
100
AcDbCircle
 10
0.0
 20
-0.0650000000000546
 30
0.0
 40
0.0175
  0
LWPOLYLINE
  5
DED
330
DD7
100
AcDbEntity
  8
BLOCKS
100
AcDbPolyline
 90
        3
 70
     0
 43
0.0
 10
0.0
 20
-0.5000000000000006
 42
-0.082161
 10
-0.0959689999999682
 20
-0.4841229999999547
 42
-0.065136
 10
-0.1509810000000016
 20
-0.4570049999999816
 42
-0.065136
  0
LWPOLYLINE
  5
DEE
330
DD7
100
AcDbEntity
  8
BLOCKS
100
AcDbPolyline
 90
        3
 70
     0
 43
0.0
 10
0.0
 20
-0.5000000000000006
 42
0.082161
 10
0.0959689999999682
 20
-0.4841229999999547
 42
0.065136
 10
0.1509810000000016
 20
-0.4570049999999816
 42
0.065136
  0
ARC
  5
DEF
330
DD7
100
AcDbEntity
  8
BLOCKS
100
AcDbCircle
 10
-0.2560849999999846
 20
-0.0735290000000077
 30
0.0
 40
0.165587
100
AcDbArc
 50
285.4812930000004
 51
300.185770999997
  0
ARC
  5
DF0
330
DD7
100
AcDbEntity
  8
BLOCKS
100
AcDbCircle
 10
-0.28129899999999
 20
0.0430330000000367
 30
0.0
 40
0.284731
100
AcDbArc
 50
274.7466379999993
 51
284.1100219999974
  0
ARC
  5
DF1
330
DD7
100
AcDbEntity
  8
BLOCKS
100
AcDbCircle
 10
-0.3159630000000106
 20
-0.2775000000000324
 30
0.0
 40
0.018384
100
AcDbArc
 50
129.7131020000021
 51
167.1951869999978
  0
ARC
  5
DF2
330
DD7
100
AcDbEntity
  8
BLOCKS
100
AcDbCircle
 10
-0.2402560000000449
 20
-0.2793149999999974
 30
0.0
 40
0.101299
100
AcDbArc
 50
158.8340069999988
 51
168.505743999998
  0
LINE
  5
DF3
330
DD7
100
AcDbEntity
  8
BLOCKS
100
AcDbLine
 10
-0.2672390000000178
 20
-0.1017910000000484
 30
0.0
 11
-0.334720999999945
 21
-0.2427390000000293
 31
0.0
  0
ARC
  5
DF4
330
DD7
100
AcDbEntity
  8
BLOCKS
100
AcDbCircle
 10
-0.2119740000000547
 20
-0.4332329999999735
 30
0.0
 40
0.197876
100
AcDbArc
 50
103.3720109999969
 51
125.1581330000018
  0
ARC
  5
DF5
330
DD7
100
AcDbEntity
  8
BLOCKS
100
AcDbCircle
 10
0.0075940000000401
 20
-0.2205480000000085
 30
0.0
 40
0.2856560000000001
100
AcDbArc
 50
191.9736789999982
 51
214.9794239999978
  0
ARC
  5
DF6
330
DD7
100
AcDbEntity
  8
BLOCKS
100
AcDbCircle
 10
-0.050296000000003
 20
-0.2768610000000541
 30
0.0
 40
0.20621
100
AcDbArc
 50
212.1873439999991
 51
239.6609970000017
  0
ARC
  5
DF7
330
DD7
100
AcDbEntity
  8
BLOCKS
100
AcDbCircle
 10
0.0075940000000401
 20
-0.2205480000000085
 30
0.0
 40
0.3556560000000001
100
AcDbArc
 50
195.5924940000007
 51
214.9794239999978
  0
ARC
  5
DF8
330
DD7
100
AcDbEntity
  8
BLOCKS
100
AcDbCircle
 10
-0.2447859999999764
 20
-0.2802590000000014
 30
0.0
 40
0.097065
100
AcDbArc
 50
167.4263790000015
 51
201.6982350000024
  0
ARC
  5
DF9
330
DD7
100
AcDbEntity
  8
BLOCKS
100
AcDbCircle
 10
-0.2447859999999764
 20
-0.2802590000000014
 30
0.0
 40
0.027065
100
AcDbArc
 50
167.4263790000015
 51
179.0503300000024
  0
LINE
  5
DFA
330
DD7
100
AcDbEntity
  8
BLOCKS
100
AcDbLine
 10
-0.1124869999999873
 20
-0.1372559999999794
 30
0.0
 11
-0.3277090000000271
 21
-0.2633580000000398
 31
0.0
  0
ARC
  5
DFB
330
DD7
100
AcDbEntity
  8
BLOCKS
100
AcDbCircle
 10
-0.6790919999999688
 20
0.4872319999999491
 30
0.0
 40
0.8670469999999999
100
AcDbArc
 50
305.7250249999999
 51
308.3052239999998
  0
LINE
  5
DFC
330
DD7
100
AcDbEntity
  8
BLOCKS
100
AcDbLine
 10
-0.2672390000000178
 20
-0.1017910000000484
 30
0.0
 11
-0.2672390000000178
 21
-0.0099999999999909
 31
0.0
  0
LWPOLYLINE
  5
DFD
330
DD7
100
AcDbEntity
  8
BLOCKS
100
AcDbPolyline
 90
        3
 70
     0
 43
0.0
 10
0.0
 20
-0.5700000000000506
 42
-0.082161
 10
-0.1185140000000047
 20
-0.550392999999986
 42
-0.065136
 10
-0.1898139999999557
 20
-0.5152450000000505
 42
-0.104399
  0
ARC
  5
DFE
330
DD7
100
AcDbEntity
  8
BLOCKS
100
AcDbCircle
 10
-0.050296000000003
 20
-0.2768610000000541
 30
0.0
 40
0.2762100000000001
100
AcDbArc
 50
212.1873439999991
 51
239.6609970000017
  0
LWPOLYLINE
  5
DFF
330
DD7
100
AcDbEntity
  8
BLOCKS
100
AcDbPolyline
 90
        3
 70
     0
 43
0.0
 10
0.0
 20
-0.5700000000000506
 42
0.082161
 10
0.1185140000000047
 20
-0.550392999999986
 42
0.065136
 10
0.1898139999999557
 20
-0.5152450000000505
 42
0.104399
  0
LINE
  5
E00
330
DD7
100
AcDbEntity
  8
BLOCKS
100
AcDbLine
 10
-0.2572390000000269
 20
0.0
 30
0.0
 11
0.2572390000000269
 21
0.0
 31
0.0
  0
ARC
  5
E01
330
DD7
100
AcDbEntity
  8
BLOCKS
100
AcDbCircle
 10
0.0
 20
0.7089399999999842
 30
0.0
 40
0.8536399999999998
100
AcDbArc
 50
251.756350000002
 51
288.243649999998
  0
ARC
  5
E02
330
DD7
100
AcDbEntity
  8
BLOCKS
100
AcDbCircle
 10
0.2560849999999846
 20
-0.0735290000000077
 30
0.0
 40
0.165587
100
AcDbArc
 50
239.814229000003
 51
254.5187069999996
  0
LINE
  5
E03
330
DD7
100
AcDbEntity
  8
BLOCKS
100
AcDbLine
 10
0.1124869999999873
 20
-0.1372559999999794
 30
0.0
 11
0.3277090000000271
 21
-0.2633580000000398
 31
0.0
  0
ARC
  5
E04
330
DD7
100
AcDbEntity
  8
BLOCKS
100
AcDbCircle
 10
0.050296000000003
 20
-0.2768610000000541
 30
0.0
 40
0.20621
100
AcDbArc
 50
300.3390029999983
 51
327.8126560000009
  0
ARC
  5
E05
330
DD7
100
AcDbEntity
  8
BLOCKS
100
AcDbCircle
 10
0.6790919999999688
 20
0.4872319999999491
 30
0.0
 40
0.8670469999999999
100
AcDbArc
 50
234.4006809999993
 51
234.4903549999975
  0
ENDBLK
  5
E07
330
DD7
100
AcDbEntity
  8
0
100
AcDbBlockEnd
  0
BLOCK
  5
E20
330
E09
100
AcDbEntity
  8
0
100
AcDbBlockBegin
  2
104320AL
 70
     0
 10
0.0
 20
0.0
 30
0.0
  3
104320AL
  1

  0
ARC
  5
E0A
330
E09
100
AcDbEntity
  8
BLOCKS
100
AcDbCircle
 10
0.5599999999999455
 20
0.8300000000000414
 30
0.0
 40
0.01
100
AcDbArc
 50
0.0
 51
90.0
  0
ARC
  5
E0B
330
E09
100
AcDbEntity
  8
BLOCKS
100
AcDbCircle
 10
0.5599999999999455
 20
0.8291779999999567
 30
0.0
 40
0.01
100
AcDbArc
 50
305.824855000001
 51
0.0
  0
LINE
  5
E0C
330
E09
100
AcDbEntity
  8
BLOCKS
100
AcDbLine
 10
0.5700000000000501
 20
0.8300000000000414
 30
0.0
 11
0.5700000000000501
 21
0.8291779999999567
 31
0.0
  0
ARC
  5
E0D
330
E09
100
AcDbEntity
  8
BLOCKS
100
AcDbCircle
 10
5.430856999999946
 20
-5.942645999999967
 30
0.0
 40
8.331633
100
AcDbArc
 50
125.7267019999982
 51
126.4513830000006
  0
ARC
  5
E0E
330
E09
100
AcDbEntity
  8
BLOCKS
100
AcDbCircle
 10
-1.768231000000014
 20
3.290003999999953
 30
0.0
 40
3.385804
100
AcDbArc
 50
310.2160239999999
 51
311.622714000001
  0
ARC
  5
E0F
330
E09
100
AcDbEntity
  8
BLOCKS
100
AcDbCircle
 10
0.0099999999999909
 20
0.8400000000000323
 30
0.0
 40
0.01
100
AcDbArc
 50
90.0
 51
180.0
  0
LINE
  5
E10
330
E09
100
AcDbEntity
  8
BLOCKS
100
AcDbLine
 10
0.0099999999999909
 20
0.8500000000000232
 30
0.0
 11
0.1293190000000095
 21
0.8499749999999727
 31
0.0
  0
ARC
  5
E11
330
E09
100
AcDbEntity
  8
BLOCKS
100
AcDbCircle
 10
0.1117759999999635
 20
0.7866030000000143
 30
0.0
 40
0.03
100
AcDbArc
 50
251.8814460000017
 51
289.0868010000028
  0
LINE
  5
E12
330
E09
100
AcDbEntity
  8
BLOCKS
100
AcDbLine
 10
0.1024469999999837
 20
0.7580900000000389
 30
0.0
 11
0.0
 21
0.791611999999987
 31
0.0
  0
LINE
  5
E13
330
E09
100
AcDbEntity
  8
BLOCKS
100
AcDbLine
 10
0.0
 20
0.6699999999999596
 30
0.0
 11
0.0
 21
0.8400000000000323
 31
0.0
  0
ARC
  5
E14
330
E09
100
AcDbEntity
  8
BLOCKS
100
AcDbCircle
 10
0.1286179999999604
 20
0.8400000000000323
 30
0.0
 40
0.01
100
AcDbArc
 50
7.766676999998357
 51
90.0
  0
LINE
  5
E15
330
E09
100
AcDbEntity
  8
BLOCKS
100
AcDbLine
 10
0.5599999999999455
 20
0.8400000000000323
 30
0.0
 11
0.0
 21
0.8400000000000323
 31
0.0
  0
LINE
  5
E16
330
E09
100
AcDbEntity
  8
BLOCKS
100
AcDbLine
 10
0.3010040000000345
 20
0.8203350000000005
 30
0.0
 11
0.1215859999999793
 21
0.758251999999971
 31
0.0
  0
ARC
  5
E17
330
E09
100
AcDbEntity
  8
BLOCKS
100
AcDbCircle
 10
0.3647929999999633
 20
0.6549830000000162
 30
0.0
 40
0.005
100
AcDbArc
 50
330.763256000002
 51
89.93334699999735
  0
LINE
  5
E18
330
E09
100
AcDbEntity
  8
BLOCKS
100
AcDbLine
 10
0.3715869999999768
 20
0.6599999999999687
 30
0.0
 11
0.0099999999999909
 21
0.6599999999999687
 31
0.0
  0
ARC
  5
E19
330
E09
100
AcDbEntity
  8
BLOCKS
100
AcDbCircle
 10
0.8583469999999806
 20
0.3787290000000212
 30
0.0
 40
0.560607
100
AcDbArc
 50
150.763256000002
 51
174.3132689999971
  0
ARC
  5
E1A
330
E09
100
AcDbEntity
  8
BLOCKS
100
AcDbCircle
 10
0.0099999999999909
 20
0.6699999999999596
 30
0.0
 40
0.01
100
AcDbArc
 50
180.0
 51
270.0
  0
ARC
  5
E1B
330
E09
100
AcDbEntity
  8
BLOCKS
100
AcDbCircle
 10
0.7925510000000032
 20
0.2688630000000103
 30
0.0
 40
0.5746299999999999
100
AcDbArc
 50
130.6935430000037
 51
137.1034389999976
  0
LINE
  5
E1C
330
E09
100
AcDbEntity
  8
BLOCKS
100
AcDbLine
 10
0.2855279999999993
 20
0.0
 30
0.0
 11
0.0824999999999818
 21
0.0
 31
0.0
  0
LINE
  5
E1D
330
E09
100
AcDbEntity
  8
BLOCKS
100
AcDbLine
 10
0.0824999999999818
 20
0.0
 30
0.0
 11
0.0824999999999818
 21
0.6599999999999687
 31
0.0
  0
ARC
  5
E1E
330
E09
100
AcDbEntity
  8
BLOCKS
100
AcDbCircle
 10
10.25736500000005
 20
-0.1263599999999769
 30
0.0
 40
9.972637
100
AcDbArc
 50
176.7772589999981
 51
179.2740040000021
  0
LINE
  5
E1F
330
E09
100
AcDbEntity
  8
BLOCKS
100
AcDbLine
 10
0.1430639999999812
 20
0.0
 30
0.0
 11
0.1430639999999812
 21
0.6599999999999687
 31
0.0
  0
ENDBLK
  5
E21
330
E09
100
AcDbEntity
  8
0
100
AcDbBlockEnd
  0
BLOCK
  5
E3A
330
E23
100
AcDbEntity
  8
0
100
AcDbBlockBegin
  2
104320AF
 70
     0
 10
0.0
 20
0.0
 30
0.0
  3
104320AF
  1

  0
LINE
  5
E24
330
E23
100
AcDbEntity
  8
BLOCKS
100
AcDbLine
 10
0.2672390000000178
 20
0.8400000000000318
 30
0.0
 11
0.2672390000000178
 21
0.8499339999999619
 31
0.0
  0
ARC
  5
E25
330
E23
100
AcDbEntity
  8
BLOCKS
100
AcDbCircle
 10
0.1765550000000076
 20
0.6949509999999464
 30
0.0
 40
0.01
100
AcDbArc
 50
270.0
 51
0.0
  0
LINE
  5
E26
330
E23
100
AcDbEntity
  8
BLOCKS
100
AcDbLine
 10
0.1865549999999985
 20
0.7054369999999608
 30
0.0
 11
0.1865549999999985
 21
0.6949509999999464
 31
0.0
  0
ARC
  5
E27
330
E23
100
AcDbEntity
  8
BLOCKS
100
AcDbCircle
 10
5.200243
 20
-5.942645999999967
 30
0.0
 40
8.331633
100
AcDbArc
 50
125.7171480000027
 51
126.5807799999996
  0
ARC
  5
E28
330
E23
100
AcDbEntity
  8
BLOCKS
100
AcDbCircle
 10
0.3305289999999559
 20
0.8300000000000409
 30
0.0
 40
0.01
100
AcDbArc
 50
305.7171480000027
 51
90.0
  0
LINE
  5
E29
330
E23
100
AcDbEntity
  8
BLOCKS
100
AcDbLine
 10
-0.2672390000000178
 20
0.8400000000000318
 30
0.0
 11
-0.2672390000000178
 21
0.8500450000000228
 31
0.0
  0
ARC
  5
E2A
330
E23
100
AcDbEntity
  8
BLOCKS
100
AcDbCircle
 10
-0.1765550000000076
 20
0.6949509999999464
 30
0.0
 40
0.01
100
AcDbArc
 50
180.0
 51
270.0
  0
LINE
  5
E2B
330
E23
100
AcDbEntity
  8
BLOCKS
100
AcDbLine
 10
-0.1679709999999659
 20
0.6849509999999555
 30
0.0
 11
-0.1765550000000076
 21
0.6849509999999555
 31
0.0
  0
LINE
  5
E2C
330
E23
100
AcDbEntity
  8
BLOCKS
100
AcDbLine
 10
-0.1865549999999985
 20
0.7054369999999608
 30
0.0
 11
-0.1865549999999985
 21
0.6949509999999464
 31
0.0
  0
ARC
  5
E2D
330
E23
100
AcDbEntity
  8
BLOCKS
100
AcDbCircle
 10
-0.3305289999999559
 20
0.8300000000000409
 30
0.0
 40
0.01
100
AcDbArc
 50
90.0
 51
234.2828519999973
  0
ARC
  5
E2E
330
E23
100
AcDbEntity
  8
BLOCKS
100
AcDbCircle
 10
-5.200243
 20
-5.942645999999967
 30
0.0
 40
8.331633
100
AcDbArc
 50
53.41922000000043
 51
54.28285199999733
  0
LINE
  5
E2F
330
E23
100
AcDbEntity
  8
BLOCKS
100
AcDbLine
 10
0.1485010000000102
 20
0.6599999999999682
 30
0.0
 11
-0.1485010000000102
 21
0.6599999999999682
 31
0.0
  0
ARC
  5
E30
330
E23
100
AcDbEntity
  8
BLOCKS
100
AcDbCircle
 10
-0.5659010000000535
 20
0.3959680000000389
 30
0.0
 40
0.4974940000000001
100
AcDbArc
 50
4.416617000002869
 51
18.30826100000291
  0
ARC
  5
E31
330
E23
100
AcDbEntity
  8
BLOCKS
100
AcDbCircle
 10
0.5659010000000535
 20
0.3959680000000389
 30
0.0
 40
0.4974940000000001
100
AcDbArc
 50
161.691738999997
 51
175.5833829999971
  0
LINE
  5
E32
330
E23
100
AcDbEntity
  8
BLOCKS
100
AcDbLine
 10
-0.0698840000000018
 20
0.0
 30
0.0
 11
0.0698840000000018
 21
0.0
 31
0.0
  0
LINE
  5
E33
330
E23
100
AcDbEntity
  8
BLOCKS
100
AcDbLine
 10
-0.0698840000000018
 20
0.4342789999999468
 30
0.0
 11
-0.0698840000000018
 21
0.0
 31
0.0
  0
LINE
  5
E34
330
E23
100
AcDbEntity
  8
BLOCKS
100
AcDbLine
 10
0.0698840000000018
 20
0.4342789999999468
 30
0.0
 11
0.0698840000000018
 21
0.0
 31
0.0
  0
ARC
  5
E35
330
E23
100
AcDbEntity
  8
BLOCKS
100
AcDbCircle
 10
-0.4733420000000024
 20
0.4265940000000228
 30
0.0
 40
0.4
100
AcDbArc
 50
18.30826100000291
 51
53.41922000000043
  0
LINE
  5
E36
330
E23
100
AcDbEntity
  8
BLOCKS
100
AcDbLine
 10
-0.2672390000000178
 20
0.8500450000000228
 30
0.0
 11
0.2672390000000178
 21
0.8499339999999619
 31
0.0
  0
LINE
  5
E37
330
E23
100
AcDbEntity
  8
BLOCKS
100
AcDbLine
 10
0.3305289999999559
 20
0.8400000000000318
 30
0.0
 11
-0.3305289999999559
 21
0.8400000000000318
 31
0.0
  0
ARC
  5
E38
330
E23
100
AcDbEntity
  8
BLOCKS
100
AcDbCircle
 10
0.4733420000000024
 20
0.4265940000000228
 30
0.0
 40
0.4
100
AcDbArc
 50
126.5807799999996
 51
161.691738999997
  0
LINE
  5
E39
330
E23
100
AcDbEntity
  8
BLOCKS
100
AcDbLine
 10
0.1679709999999659
 20
0.6849509999999555
 30
0.0
 11
0.1765550000000076
 21
0.6849509999999555
 31
0.0
  0
ENDBLK
  5
E3B
330
E23
100
AcDbEntity
  8
0
100
AcDbBlockEnd
  0
BLOCK
  5
EA9
330
E3D
100
AcDbEntity
  8
0
100
AcDbBlockBegin
  2
104320CT
 70
     0
 10
0.0
 20
0.0
 30
0.0
  3
104320CT
  1

  0
ARC
  5
E3E
330
E3D
100
AcDbEntity
  8
BLOCKS
100
AcDbCircle
 10
0.558840000000032
 20
0.8300000000000409
 30
0.0
 40
0.01
100
AcDbArc
 50
90.0
 51
98.61886899999797
  0
ARC
  5
E3F
330
E3D
100
AcDbEntity
  8
BLOCKS
100
AcDbCircle
 10
0.5599999999999455
 20
0.8300000000000409
 30
0.0
 40
0.01
100
AcDbArc
 50
0.0
 51
90.0
  0
ARC
  5
E40
330
E3D
100
AcDbEntity
  8
BLOCKS
100
AcDbCircle
 10
0.5599999999999455
 20
0.8291779999999562
 30
0.0
 40
0.01
100
AcDbArc
 50
305.824855000001
 51
0.0
  0
LINE
  5
E41
330
E3D
100
AcDbEntity
  8
BLOCKS
100
AcDbLine
 10
0.5599999999999455
 20
0.8400000000000318
 30
0.0
 11
0.558840000000032
 21
0.8400000000000318
 31
0.0
  0
LINE
  5
E42
330
E3D
100
AcDbEntity
  8
BLOCKS
100
AcDbLine
 10
0.5700000000000501
 20
0.8300000000000409
 30
0.0
 11
0.5700000000000501
 21
0.8291779999999562
 31
0.0
  0
LINE
  5
E43
330
E3D
100
AcDbEntity
  8
BLOCKS
100
AcDbLine
 10
0.5175130000000081
 20
0.8238179999999601
 30
0.0
 11
0.5437100000000328
 21
0.8277890000000525
 31
0.0
  0
ARC
  5
E44
330
E3D
100
AcDbEntity
  8
BLOCKS
100
AcDbCircle
 10
6.555850999999961
 20
-6.324691000000029
 30
0.0
 40
9.338091
100
AcDbArc
 50
130.0589070000017
 51
130.3412230000006
  0
ARC
  5
E45
330
E3D
100
AcDbEntity
  8
BLOCKS
100
AcDbCircle
 10
0.3503849999999602
 20
0.8647479999999632
 30
0.0
 40
0.170232
100
AcDbArc
 50
336.2988170000019
 51
345.321599000002
  0
ARC
  5
E46
330
E3D
100
AcDbEntity
  8
BLOCKS
100
AcDbCircle
 10
0.5088650000000144
 20
0.8259510000000318
 30
0.0
 40
0.006522
100
AcDbArc
 50
101.4357229999982
 51
167.320513000002
  0
ARC
  5
E47
330
E3D
100
AcDbEntity
  8
BLOCKS
100
AcDbCircle
 10
0.5179630000000089
 20
0.8208519999999452
 30
0.0
 40
0.003
100
AcDbArc
 50
98.61886899999797
 51
165.321599000002
  0
LINE
  5
E48
330
E3D
100
AcDbEntity
  8
BLOCKS
100
AcDbLine
 10
0.507571999999982
 20
0.8323430000000371
 30
0.0
 11
0.5573419999999488
 21
0.839886999999976
 31
0.0
  0
ARC
  5
E49
330
E3D
100
AcDbEntity
  8
BLOCKS
100
AcDbCircle
 10
0.5441600000000335
 20
0.8248230000000376
 30
0.0
 40
0.003
100
AcDbArc
 50
310.0589070000017
 51
98.61886899999797
  0
ARC
  5
E4A
330
E3D
100
AcDbEntity
  8
BLOCKS
100
AcDbCircle
 10
5.430856999999946
 20
-5.942645999999967
 30
0.0
 40
8.331633
100
AcDbArc
 50
125.7267019999982
 51
126.4513830000006
  0
ARC
  5
E4B
330
E3D
100
AcDbEntity
  8
BLOCKS
100
AcDbCircle
 10
0.509005000000002
 20
0.7951150000000098
 30
0.0
 40
0.003
100
AcDbArc
 50
156.2988170000019
 51
310.3412230000007
  0
LINE
  5
E4C
330
E3D
100
AcDbEntity
  8
BLOCKS
100
AcDbLine
 10
0.369152999999983
 20
0.6816740000000437
 30
0.0
 11
0.3797049999999444
 21
0.6911730000000489
 31
0.0
  0
LINE
  5
E4D
330
E3D
100
AcDbEntity
  8
BLOCKS
100
AcDbLine
 10
0.3620929999999589
 20
0.6859309999999823
 30
0.0
 11
0.3797230000000127
 21
0.6928450000000339
 31
0.0
  0
LINE
  5
E4E
330
E3D
100
AcDbEntity
  8
BLOCKS
100
AcDbLine
 10
0.3629160000000411
 20
0.6846679999999879
 30
0.0
 11
0.369152999999983
 21
0.6816740000000437
 31
0.0
  0
LINE
  5
E4F
330
E3D
100
AcDbEntity
  8
BLOCKS
100
AcDbLine
 10
0.3620929999999589
 20
0.6859309999999823
 30
0.0
 11
0.3629160000000411
 21
0.6846679999999879
 31
0.0
  0
LINE
  5
E50
330
E3D
100
AcDbEntity
  8
BLOCKS
100
AcDbLine
 10
0.3797049999999444
 20
0.6911730000000489
 30
0.0
 11
0.3797230000000127
 21
0.6928450000000339
 31
0.0
  0
ARC
  5
E51
330
E3D
100
AcDbEntity
  8
BLOCKS
100
AcDbCircle
 10
0.3591979999999921
 20
0.8632159999999657
 30
0.0
 40
0.147717
100
AcDbArc
 50
302.7725640000014
 51
345.960939000001
  0
ARC
  5
E52
330
E3D
100
AcDbEntity
  8
BLOCKS
100
AcDbCircle
 10
-1.768231000000014
 20
3.290003999999953
 30
0.0
 40
3.385804
100
AcDbArc
 50
310.2160239999999
 51
311.622714000001
  0
ARC
  5
E53
330
E3D
100
AcDbEntity
  8
BLOCKS
100
AcDbCircle
 10
0.3030479999999898
 20
0.7601849999999786
 30
0.0
 40
0.083405
100
AcDbArc
 50
127.6063550000004
 51
145.1448570000023
  0
ARC
  5
E54
330
E3D
100
AcDbEntity
  8
BLOCKS
100
AcDbCircle
 10
0.2483339999999998
 20
0.8335029999999505
 30
0.0
 40
0.008188
100
AcDbArc
 50
297.7942300000013
 51
349.8866499999981
  0
ARC
  5
E55
330
E3D
100
AcDbEntity
  8
BLOCKS
100
AcDbCircle
 10
0.1694380000000137
 20
0.6887070000000222
 30
0.0
 40
0.01
100
AcDbArc
 50
187.7666769999984
 51
270.0
  0
ARC
  5
E56
330
E3D
100
AcDbEntity
  8
BLOCKS
100
AcDbCircle
 10
0.0563919999999598
 20
0.823391000000015
 30
0.0
 40
0.18071
100
AcDbArc
 50
308.1848999999987
 51
325.8137710000019
  0
ARC
  5
E57
330
E3D
100
AcDbEntity
  8
BLOCKS
100
AcDbCircle
 10
0.6594119999999748
 20
0.6879010000000108
 30
0.0
 40
0.446505
100
AcDbArc
 50
167.6340089999999
 51
171.3907779999976
  0
LINE
  5
E58
330
E3D
100
AcDbEntity
  8
BLOCKS
100
AcDbLine
 10
0.1694380000000137
 20
0.6787070000000313
 30
0.0
 11
0.2719970000000558
 21
0.6787070000000313
 31
0.0
  0
ARC
  5
E59
330
E3D
100
AcDbEntity
  8
BLOCKS
100
AcDbCircle
 10
0.131289000000038
 20
0.7678590000000441
 30
0.0
 40
0.087637
100
AcDbArc
 50
328.3334429999982
 51
351.3907779999976
  0
LINE
  5
E5A
330
E3D
100
AcDbEntity
  8
BLOCKS
100
AcDbLine
 10
0.1385259999999562
 20
0.8413510000000314
 30
0.0
 11
0.1595300000000179
 21
0.6873550000000251
 31
0.0
  0
ARC
  5
E5B
330
E3D
100
AcDbEntity
  8
BLOCKS
100
AcDbCircle
 10
0.2832389999999805
 20
0.7703739999999471
 30
0.0
 40
0.061398
100
AcDbArc
 50
142.3822489999981
 51
167.6340089999999
  0
LINE
  5
E5C
330
E3D
100
AcDbEntity
  8
BLOCKS
100
AcDbLine
 10
0.0965300000000298
 20
0.8327500000000327
 30
0.0
 11
0.0824999999999818
 21
0.8327500000000327
 31
0.0
  0
LINE
  5
E5D
330
E3D
100
AcDbEntity
  8
BLOCKS
100
AcDbLine
 10
0.0824999999999818
 20
0.8327500000000327
 30
0.0
 11
0.0824999999999818
 21
0.8500000000000227
 31
0.0
  0
ARC
  5
E5E
330
E3D
100
AcDbEntity
  8
BLOCKS
100
AcDbCircle
 10
0.1231520000000046
 20
0.8294949999999516
 30
0.0
 40
0.006492
100
AcDbArc
 50
56.70362899999935
 51
100.877012000001
  0
ARC
  5
E5F
330
E3D
100
AcDbEntity
  8
BLOCKS
100
AcDbCircle
 10
0.0965300000000298
 20
0.8227500000000418
 30
0.0
 40
0.01
100
AcDbArc
 50
7.766676999998387
 51
90.0
  0
ARC
  5
E60
330
E3D
100
AcDbEntity
  8
BLOCKS
100
AcDbCircle
 10
0.1248419999999442
 20
0.8276049999999486
 30
0.0
 40
0.008765
100
AcDbArc
 50
109.4281449999994
 51
194.213617999998
  0
LINE
  5
E61
330
E3D
100
AcDbEntity
  8
BLOCKS
100
AcDbLine
 10
0.1305109999999559
 20
0.8254530000000386
 30
0.0
 11
0.1314559999999574
 21
0.8185200000000349
 31
0.0
  0
ARC
  5
E62
330
E3D
100
AcDbEntity
  8
BLOCKS
100
AcDbCircle
 10
0.1123099999999795
 20
0.8236540000000331
 30
0.0
 40
0.018289
100
AcDbArc
 50
5.645006999996765
 51
38.03084699999855
  0
ARC
  5
E63
330
E3D
100
AcDbEntity
  8
BLOCKS
100
AcDbCircle
 10
0.0099999999999909
 20
0.8400000000000318
 30
0.0
 40
0.01
100
AcDbArc
 50
90.0
 51
180.0
  0
LINE
  5
E64
330
E3D
100
AcDbEntity
  8
BLOCKS
100
AcDbLine
 10
0.0475000000000137
 20
0.8327500000000327
 30
0.0
 11
0.0475000000000137
 21
0.8500000000000227
 31
0.0
  0
LINE
  5
E65
330
E3D
100
AcDbEntity
  8
BLOCKS
100
AcDbLine
 10
0.0475000000000137
 20
0.8327500000000327
 30
0.0
 11
0.0364759999999933
 21
0.8327500000000327
 31
0.0
  0
ARC
  5
E66
330
E3D
100
AcDbEntity
  8
BLOCKS
100
AcDbCircle
 10
0.0364759999999933
 20
0.8227500000000418
 30
0.0
 40
0.01
100
AcDbArc
 50
90.0
 51
175.0964100000022
  0
LINE
  5
E67
330
E3D
100
AcDbEntity
  8
BLOCKS
100
AcDbLine
 10
0.0099999999999909
 20
0.8500000000000227
 30
0.0
 11
0.1293190000000095
 21
0.8499749999999721
 31
0.0
  0
LINE
  5
E68
330
E3D
100
AcDbEntity
  8
BLOCKS
100
AcDbLine
 10
0.0265130000000227
 20
0.8236050000000432
 30
0.0
 11
0.0147739999999885
 21
0.6867750000000115
 31
0.0
  0
LINE
  5
E69
330
E3D
100
AcDbEntity
  8
BLOCKS
100
AcDbLine
 10
0.1348329999999578
 20
0.7937620000000152
 30
0.0
 11
0.1501859999999624
 21
0.681194000000005
 31
0.0
  0
ARC
  5
E6A
330
E3D
100
AcDbEntity
  8
BLOCKS
100
AcDbCircle
 10
0.1286179999999604
 20
0.8400000000000318
 30
0.0
 40
0.01
100
AcDbArc
 50
7.766676999998387
 51
90.0
  0
LINE
  5
E6B
330
E3D
100
AcDbEntity
  8
BLOCKS
100
AcDbLine
 10
0.1348329999999578
 20
0.7937620000000152
 30
0.0
 11
0.1447879999999486
 21
0.7954449999999725
 31
0.0
  0
LINE
  5
E6C
330
E3D
100
AcDbEntity
  8
BLOCKS
100
AcDbLine
 10
0.1314559999999574
 20
0.8185200000000349
 30
0.0
 11
0.1414109999999482
 21
0.8202029999999922
 31
0.0
  0
LINE
  5
E6D
330
E3D
100
AcDbEntity
  8
BLOCKS
100
AcDbLine
 10
0.558840000000032
 20
0.8400000000000318
 30
0.0
 11
0.1387109999999438
 21
0.8400000000000318
 31
0.0
  0
LINE
  5
E6E
330
E3D
100
AcDbEntity
  8
BLOCKS
100
AcDbLine
 10
0.340577000000053
 20
0.6599099999999681
 30
0.0
 11
0.3130300000000261
 21
0.659942000000001
 31
0.0
  0
LINE
  5
E6F
330
E3D
100
AcDbEntity
  8
BLOCKS
100
AcDbLine
 10
0.3169769999999517
 20
0.6496389999999792
 30
0.0
 11
0.3395719999999756
 21
0.6519019999999501
 31
0.0
  0
LINE
  5
E70
330
E3D
100
AcDbEntity
  8
BLOCKS
100
AcDbLine
 10
0.3201340000000528
 20
0.6324690000000146
 30
0.0
 11
0.3305950000000166
 21
0.6217659999999797
 31
0.0
  0
ARC
  5
E71
330
E3D
100
AcDbEntity
  8
BLOCKS
100
AcDbCircle
 10
0.281231000000048
 20
0.5892569999999751
 30
0.0
 40
0.045226
100
AcDbArc
 50
13.38114199999789
 51
49.79141099999735
  0
ARC
  5
E72
330
E3D
100
AcDbEntity
  8
BLOCKS
100
AcDbCircle
 10
0.3174460000000181
 20
0.5978720000000522
 30
0.0
 40
0.008
100
AcDbArc
 50
337.9449200000029
 51
13.38114199999789
  0
LINE
  5
E73
330
E3D
100
AcDbEntity
  8
BLOCKS
100
AcDbLine
 10
0.3131889999999657
 20
0.6471729999999525
 30
0.0
 11
0.3169769999999517
 21
0.6496389999999792
 31
0.0
  0
LINE
  5
E74
330
E3D
100
AcDbEntity
  8
BLOCKS
100
AcDbLine
 10
0.3131479999999556
 20
0.6434110000000146
 30
0.0
 11
0.3131889999999657
 21
0.6471729999999525
 31
0.0
  0
LINE
  5
E75
330
E3D
100
AcDbEntity
  8
BLOCKS
100
AcDbLine
 10
0.3143740000000434
 20
0.6408900000000131
 30
0.0
 11
0.3131479999999556
 21
0.6434110000000146
 31
0.0
  0
LINE
  5
E76
330
E3D
100
AcDbEntity
  8
BLOCKS
100
AcDbLine
 10
0.3201340000000528
 20
0.6324690000000146
 30
0.0
 11
0.3143740000000434
 21
0.6408900000000131
 31
0.0
  0
ARC
  5
E77
330
E3D
100
AcDbEntity
  8
BLOCKS
100
AcDbCircle
 10
0.3155669999999873
 20
0.6142710000000307
 30
0.0
 40
0.045741
100
AcDbArc
 50
88.66997700000059
 51
102.3954719999971
  0
LINE
  5
E78
330
E3D
100
AcDbEntity
  8
BLOCKS
100
AcDbLine
 10
0.3593869999999697
 20
0.6659100000000536
 30
0.0
 11
0.3748890000000529
 21
0.6661219999999731
 31
0.0
  0
ARC
  5
E79
330
E3D
100
AcDbEntity
  8
BLOCKS
100
AcDbCircle
 10
0.3647929999999633
 20
0.6549830000000157
 30
0.0
 40
0.005
100
AcDbArc
 50
330.763256000002
 51
89.93334699999735
  0
LINE
  5
E7A
330
E3D
100
AcDbEntity
  8
BLOCKS
100
AcDbLine
 10
0.34709399999997
 20
0.6518200000000434
 30
0.0
 11
0.350037000000043
 21
0.6488130000000183
 31
0.0
  0
LINE
  5
E7B
330
E3D
100
AcDbEntity
  8
BLOCKS
100
AcDbLine
 10
0.3395719999999756
 20
0.6519019999999501
 30
0.0
 11
0.34709399999997
 21
0.6518200000000434
 31
0.0
  0
ARC
  5
E7C
330
E3D
100
AcDbEntity
  8
BLOCKS
100
AcDbCircle
 10
0.3334559999999556
 20
0.624561999999969
 30
0.0
 40
0.004
100
AcDbArc
 50
224.3455729999968
 51
334.9039479999969
  0
ARC
  5
E7D
330
E3D
100
AcDbEntity
  8
BLOCKS
100
AcDbCircle
 10
0.8583469999999806
 20
0.3787290000000212
 30
0.0
 40
0.575607
100
AcDbArc
 50
152.0166149999971
 51
154.9039479999968
  0
LINE
  5
E7E
330
E3D
100
AcDbEntity
  8
BLOCKS
100
AcDbLine
 10
0.3572279999999637
 20
0.6708320000000186
 30
0.0
 11
0.3437069999999949
 21
0.6708320000000186
 31
0.0
  0
LINE
  5
E7F
330
E3D
100
AcDbEntity
  8
BLOCKS
100
AcDbLine
 10
0.340577000000053
 20
0.6599099999999681
 30
0.0
 11
0.3437069999999949
 21
0.6708320000000186
 31
0.0
  0
LINE
  5
E80
330
E3D
100
AcDbEntity
  8
BLOCKS
100
AcDbLine
 10
0.3647989999999481
 20
0.6599830000000111
 30
0.0
 11
0.3619869999999992
 21
0.6599860000000036
 31
0.0
  0
LINE
  5
E81
330
E3D
100
AcDbEntity
  8
BLOCKS
100
AcDbLine
 10
0.3619869999999992
 20
0.6599860000000036
 30
0.0
 11
0.3572279999999637
 21
0.6708320000000186
 31
0.0
  0
LINE
  5
E82
330
E3D
100
AcDbEntity
  8
BLOCKS
100
AcDbLine
 10
0.24249999999995
 20
0.6637070000000449
 30
0.0
 11
0.24249999999995
 21
0.6237069999999676
 31
0.0
  0
ARC
  5
E83
330
E3D
100
AcDbEntity
  8
BLOCKS
100
AcDbCircle
 10
0.2675000000000409
 20
0.653707000000054
 30
0.0
 40
0.01
100
AcDbArc
 50
90.0
 51
180.0
  0
LINE
  5
E84
330
E3D
100
AcDbEntity
  8
BLOCKS
100
AcDbLine
 10
0.25750000000005
 20
0.653707000000054
 30
0.0
 11
0.25750000000005
 21
0.6237069999999676
 31
0.0
  0
ARC
  5
E85
330
E3D
100
AcDbEntity
  8
BLOCKS
100
AcDbCircle
 10
0.3255239999999731
 20
0.6489149999999882
 30
0.0
 40
0.027631
100
AcDbArc
 50
179.1413359999968
 51
198.8231930000018
  0
ARC
  5
E86
330
E3D
100
AcDbEntity
  8
BLOCKS
100
AcDbCircle
 10
0.1725000000000136
 20
0.6539390000000367
 30
0.0
 40
0.01
100
AcDbArc
 50
358.6711100000018
 51
84.73652299999804
  0
LINE
  5
E87
330
E3D
100
AcDbEntity
  8
BLOCKS
100
AcDbLine
 10
0.1974999999999909
 20
0.6637070000000449
 30
0.0
 11
0.1974999999999909
 21
0.6237069999999676
 31
0.0
  0
LINE
  5
E88
330
E3D
100
AcDbEntity
  8
BLOCKS
100
AcDbLine
 10
0.1673210000000154
 20
0.6437069999999494
 30
0.0
 11
0.1974999999999909
 21
0.6437069999999494
 31
0.0
  0
LINE
  5
E89
330
E3D
100
AcDbEntity
  8
BLOCKS
100
AcDbLine
 10
0.1824970000000121
 20
0.653707000000054
 30
0.0
 11
0.1974999999999909
 21
0.653707000000054
 31
0.0
  0
LINE
  5
E8A
330
E3D
100
AcDbEntity
  8
BLOCKS
100
AcDbLine
 10
0.1673210000000154
 20
0.6337069999999585
 30
0.0
 11
0.1775000000000091
 21
0.6337069999999585
 31
0.0
  0
LINE
  5
E8B
330
E3D
100
AcDbEntity
  8
BLOCKS
100
AcDbLine
 10
0.1825000000000045
 20
0.6287069999999631
 30
0.0
 11
0.1825000000000045
 21
0.6237069999999676
 31
0.0
  0
ARC
  5
E8C
330
E3D
100
AcDbEntity
  8
BLOCKS
100
AcDbCircle
 10
0.1775000000000091
 20
0.6287069999999631
 30
0.0
 40
0.005
100
AcDbArc
 50
0.0
 51
90.0
  0
LINE
  5
E8D
330
E3D
100
AcDbEntity
  8
BLOCKS
100
AcDbLine
 10
0.1700029999999515
 20
0.66389700000002
 30
0.0
 11
0.1734169999999722
 21
0.66389700000002
 31
0.0
  0
LINE
  5
E8E
330
E3D
100
AcDbEntity
  8
BLOCKS
100
AcDbLine
 10
0.1825000000000045
 20
0.6237069999999676
 30
0.0
 11
0.25750000000005
 21
0.6237069999999676
 31
0.0
  0
LINE
  5
E8F
330
E3D
100
AcDbEntity
  8
BLOCKS
100
AcDbLine
 10
0.1974999999999909
 20
0.6637070000000449
 30
0.0
 11
0.24249999999995
 21
0.6637070000000449
 31
0.0
  0
ARC
  5
E90
330
E3D
100
AcDbEntity
  8
BLOCKS
100
AcDbCircle
 10
0.0924999999999727
 20
0.6499999999999773
 30
0.0
 40
0.01
100
AcDbArc
 50
90.0
 51
180.0
  0
ARC
  5
E91
330
E3D
100
AcDbEntity
  8
BLOCKS
100
AcDbCircle
 10
0.0099999999999909
 20
0.6699999999999591
 30
0.0
 40
0.01
100
AcDbArc
 50
180.0
 51
270.0
  0
LINE
  5
E92
330
E3D
100
AcDbEntity
  8
BLOCKS
100
AcDbLine
 10
0.1288200000000188
 20
0.6599999999999682
 30
0.0
 11
0.0099999999999909
 21
0.6599999999999682
 31
0.0
  0
ARC
  5
E93
330
E3D
100
AcDbEntity
  8
BLOCKS
100
AcDbCircle
 10
0.1673210000000154
 20
0.6737070000000358
 30
0.0
 40
0.04
100
AcDbArc
 50
187.7666769999984
 51
270.0
  0
ARC
  5
E94
330
E3D
100
AcDbEntity
  8
BLOCKS
100
AcDbCircle
 10
0.1673210000000154
 20
0.6737070000000358
 30
0.0
 40
0.03
100
AcDbArc
 50
187.7666769999984
 51
270.0
  0
LINE
  5
E95
330
E3D
100
AcDbEntity
  8
BLOCKS
100
AcDbLine
 10
0.3415969999999788
 20
0.6636210000000347
 30
0.0
 11
0.2675000000000409
 21
0.6637070000000449
 31
0.0
  0
ARC
  5
E96
330
E3D
100
AcDbEntity
  8
BLOCKS
100
AcDbCircle
 10
0.8583469999999806
 20
0.3787290000000212
 30
0.0
 40
0.560607
100
AcDbArc
 50
150.763256000002
 51
174.3132689999971
  0
ARC
  5
E97
330
E3D
100
AcDbEntity
  8
BLOCKS
100
AcDbCircle
 10
0.8583469999999806
 20
0.3787290000000212
 30
0.0
 40
0.575607
100
AcDbArc
 50
157.9449200000029
 51
174.3132689999971
  0
ARC
  5
E98
330
E3D
100
AcDbEntity
  8
BLOCKS
100
AcDbCircle
 10
0.3078950000000304
 20
0.6491790000000038
 30
0.0
 40
0.01
100
AcDbArc
 50
102.3954719999971
 51
179.1413359999968
  0
ARC
  5
E99
330
E3D
100
AcDbEntity
  8
BLOCKS
100
AcDbCircle
 10
0.334145000000035
 20
0.6518539999999576
 30
0.0
 40
0.036739
100
AcDbArc
 50
198.8231930000018
 51
229.7914109999974
  0
ARC
  5
E9A
330
E3D
100
AcDbEntity
  8
BLOCKS
100
AcDbCircle
 10
0.2608729999999468
 20
0.0249999999999773
 30
0.0
 40
0.01
100
AcDbArc
 50
270.0
 51
359.1325319999977
  0
LINE
  5
E9B
330
E3D
100
AcDbEntity
  8
BLOCKS
100
AcDbLine
 10
0.2142179999999598
 20
0.0
 30
0.0
 11
0.2142179999999598
 21
0.0149999999999864
 31
0.0
  0
LINE
  5
E9C
330
E3D
100
AcDbEntity
  8
BLOCKS
100
AcDbLine
 10
0.2608729999999468
 20
0.0149999999999864
 30
0.0
 11
0.2142179999999598
 21
0.0149999999999864
 31
0.0
  0
LINE
  5
E9D
330
E3D
100
AcDbEntity
  8
BLOCKS
100
AcDbLine
 10
0.2855279999999993
 20
0.0
 30
0.0
 11
0.0824999999999818
 21
0.0
 31
0.0
  0
ARC
  5
E9E
330
E3D
100
AcDbEntity
  8
BLOCKS
100
AcDbCircle
 10
10.25736500000005
 20
-0.1263599999999769
 30
0.0
 40
9.987636999999999
100
AcDbArc
 50
176.7772589999981
 51
179.1325319999978
  0
ARC
  5
E9F
330
E3D
100
AcDbEntity
  8
BLOCKS
100
AcDbCircle
 10
10.25736500000005
 20
-0.1263599999999769
 30
0.0
 40
9.972637
100
AcDbArc
 50
176.7772589999981
 51
179.2740040000021
  0
LINE
  5
EA0
330
E3D
100
AcDbEntity
  8
BLOCKS
100
AcDbLine
 10
0.0824999999999818
 20
0.0
 30
0.0
 11
0.0824999999999818
 21
0.6499999999999773
 31
0.0
  0
LINE
  5
EA1
330
E3D
100
AcDbEntity
  8
BLOCKS
100
AcDbLine
 10
0.0
 20
0.6699999999999591
 30
0.0
 11
0.0
 21
0.8400000000000318
 31
0.0
  0
ARC
  5
EA2
330
E3D
100
AcDbEntity
  8
BLOCKS
100
AcDbCircle
 10
0.1700029999999515
 20
0.6838970000000018
 30
0.0
 40
0.02
100
AcDbArc
 50
187.7666769999984
 51
270.0
  0
LINE
  5
EA3
330
E3D
100
AcDbEntity
  8
BLOCKS
100
AcDbLine
 10
0.1064380000000256
 20
0.8241020000000389
 30
0.0
 11
0.1276880000000347
 21
0.6683010000000423
 31
0.0
  0
LINE
  5
EA4
330
E3D
100
AcDbEntity
  8
BLOCKS
100
AcDbLine
 10
0.1163460000000214
 20
0.8254530000000386
 30
0.0
 11
0.1375960000000305
 21
0.6696530000000394
 31
0.0
  0
LINE
  5
EA5
330
E3D
100
AcDbEntity
  8
BLOCKS
100
AcDbLine
 10
0.24249999999995
 20
0.6637070000000449
 30
0.0
 11
0.25750000000005
 21
0.6787070000000313
 31
0.0
  0
LINE
  5
EA6
330
E3D
100
AcDbEntity
  8
BLOCKS
100
AcDbLine
 10
0.1974999999999909
 20
0.6637070000000449
 30
0.0
 11
0.1825000000000045
 21
0.6787070000000313
 31
0.0
  0
ARC
  5
EA7
330
E3D
100
AcDbEntity
  8
BLOCKS
100
AcDbCircle
 10
-0.1870350000000371
 20
1.338085999999975
 30
0.0
 40
0.8759529999999999
100
AcDbArc
 50
309.903773000002
 51
313.6764410000034
  0
ARC
  5
EA8
330
E3D
100
AcDbEntity
  8
BLOCKS
100
AcDbCircle
 10
0.2519449999999779
 20
0.9961200000000189
 30
0.0
 40
0.318045
100
AcDbArc
 50
273.6147540000002
 51
306.060287000001
  0
ENDBLK
  5
EAA
330
E3D
100
AcDbEntity
  8
0
100
AcDbBlockEnd
  0
BLOCK
  5
EDC
330
EB6
100
AcDbEntity
  8
0
100
AcDbBlockBegin
  2
104500PL
 70
     0
 10
0.0
 20
0.0
 30
0.0
  3
104500PL
  1

  0
ARC
  5
EB7
330
EB6
100
AcDbEntity
  8
BLOCKS
100
AcDbCircle
 10
0.0015120000000479
 20
-0.1244229999999794
 30
0.0
 40
0.150778
100
AcDbArc
 50
7.928644000002964
 51
8.249111999997301
  0
ARC
  5
EB8
330
EB6
100
AcDbEntity
  8
BLOCKS
100
AcDbCircle
 10
0.0015120000000479
 20
-0.1244229999999794
 30
0.0
 40
0.150778
100
AcDbArc
 50
7.928644000002964
 51
8.249111999997301
  0
ARC
  5
EB9
330
EB6
100
AcDbEntity
  8
BLOCKS
100
AcDbCircle
 10
0.1441800000000057
 20
-0.0762879999999774
 30
0.0
 40
0.005
100
AcDbArc
 50
270.0
 51
355.8324429999979
  0
ARC
  5
EBA
330
EB6
100
AcDbEntity
  8
BLOCKS
100
AcDbCircle
 10
0.142612999999983
 20
-0.0977900000000324
 30
0.0
 40
0.005
100
AcDbArc
 50
270.0
 51
355.8324429999979
  0
ARC
  5
EBB
330
EB6
100
AcDbEntity
  8
BLOCKS
100
AcDbCircle
 10
-0.144141999999988
 20
-0.0762879999999774
 30
0.0
 40
0.005
100
AcDbArc
 50
184.1961869999992
 51
270.0
  0
ARC
  5
EBC
330
EB6
100
AcDbEntity
  8
BLOCKS
100
AcDbCircle
 10
-0.142563999999993
 20
-0.0977900000000324
 30
0.0
 40
0.005
100
AcDbArc
 50
184.1961869999992
 51
270.0
  0
LINE
  5
EBD
330
EB6
100
AcDbEntity
  8
BLOCKS
100
AcDbLine
 10
-0.1444209999999657
 20
-0.0812879999999729
 30
0.0
 11
0.1444209999999657
 21
-0.0812879999999729
 31
0.0
  0
LINE
  5
EBE
330
EB6
100
AcDbEntity
  8
BLOCKS
100
AcDbLine
 10
0.142612999999983
 20
-0.1027900000000278
 30
0.0
 11
-0.142563999999993
 21
-0.1027900000000278
 31
0.0
  0
ARC
  5
EBF
330
EB6
100
AcDbEntity
  8
BLOCKS
100
AcDbCircle
 10
0.0458479999999781
 20
-0.1424889999999556
 30
0.0
 40
0.1
100
AcDbArc
 50
335.4917200000003
 51
353.5843970000035
  0
LINE
  5
EC0
330
EB6
100
AcDbEntity
  8
BLOCKS
100
AcDbLine
 10
0.1129989999999452
 20
-0.1550310000000087
 30
0.0
 11
0.1147620000000415
 21
-0.1393510000000339
 31
0.0
  0
ARC
  5
EC1
330
EB6
100
AcDbEntity
  8
BLOCKS
100
AcDbCircle
 10
0.0437590000000228
 20
-0.1472330000000289
 30
0.0
 40
0.1
100
AcDbArc
 50
333.1875089999978
 51
336.9767440000007
  0
ARC
  5
EC2
330
EB6
100
AcDbEntity
  8
BLOCKS
100
AcDbCircle
 10
0.1310280000000148
 20
-0.1575050000000152
 30
0.0
 40
0.005581
100
AcDbArc
 50
348.9304749999977
 51
43.41870500000417
  0
ARC
  5
EC3
330
EB6
100
AcDbEntity
  8
BLOCKS
100
AcDbCircle
 10
0.227828000000045
 20
-0.2254540000000139
 30
0.0
 40
0.1
100
AcDbArc
 50
155.4917200000002
 51
156.9767440000007
  0
ARC
  5
EC4
330
EB6
100
AcDbEntity
  8
BLOCKS
100
AcDbCircle
 10
0.0564070000000356
 20
-0.1912640000000471
 30
0.0
 40
0.026643
100
AcDbArc
 50
218.1414830000007
 51
279.3570010000002
  0
ARC
  5
EC5
330
EB6
100
AcDbEntity
  8
BLOCKS
100
AcDbCircle
 10
0.1474709999999959
 20
-0.158821999999987
 30
0.0
 40
0.122225
100
AcDbArc
 50
191.211335000002
 51
203.5815769999997
  0
ARC
  5
EC6
330
EB6
100
AcDbEntity
  8
BLOCKS
100
AcDbCircle
 10
-0.1383769999999913
 20
-0.217617000000019
 30
0.0
 40
0.169612
100
AcDbArc
 50
11.91935800000135
 51
22.27407900000272
  0
ARC
  5
EC7
330
EB6
100
AcDbEntity
  8
BLOCKS
100
AcDbCircle
 10
0.0034030000000485
 20
-0.1596409999999656
 30
0.0
 40
0.022871
100
AcDbArc
 50
98.55719999999912
 51
163.9771109999968
  0
ARC
  5
EC8
330
EB6
100
AcDbEntity
  8
BLOCKS
100
AcDbCircle
 10
-0.0564070000000356
 20
-0.1912640000000471
 30
0.0
 40
0.026643
100
AcDbArc
 50
260.6429989999998
 51
321.8585169999993
  0
ARC
  5
EC9
330
EB6
100
AcDbEntity
  8
BLOCKS
100
AcDbCircle
 10
-0.1474709999999959
 20
-0.158821999999987
 30
0.0
 40
0.122225
100
AcDbArc
 50
336.4184230000002
 51
348.7886649999979
  0
ARC
  5
ECA
330
EB6
100
AcDbEntity
  8
BLOCKS
100
AcDbCircle
 10
0.1383769999999913
 20
-0.217617000000019
 30
0.0
 40
0.169612
100
AcDbArc
 50
157.7259209999972
 51
168.0806419999986
  0
ARC
  5
ECB
330
EB6
100
AcDbEntity
  8
BLOCKS
100
AcDbCircle
 10
-0.1312410000000455
 20
-0.157227000000035
 30
0.0
 40
0.005581
100
AcDbArc
 50
136.3578779999978
 51
190.846108000003
  0
LINE
  5
ECC
330
EB6
100
AcDbEntity
  8
BLOCKS
100
AcDbLine
 10
-0.1130769999999757
 20
-0.1545609999999448
 30
0.0
 11
-0.1147610000000441
 21
-0.1395880000000039
 31
0.0
  0
ARC
  5
ECD
330
EB6
100
AcDbEntity
  8
BLOCKS
100
AcDbCircle
 10
-0.0460699999999861
 20
-0.1405160000000484
 30
0.0
 40
0.1
100
AcDbArc
 50
186.4156029999964
 51
202.8022759999995
  0
ARC
  5
ECE
330
EB6
100
AcDbEntity
  8
BLOCKS
100
AcDbCircle
 10
-0.043751000000043
 20
-0.1462800000000476
 30
0.0
 40
0.1
100
AcDbArc
 50
201.0223879999981
 51
205.5647149999973
  0
ARC
  5
ECF
330
EB6
100
AcDbEntity
  8
BLOCKS
100
AcDbCircle
 10
-0.2304390000000467
 20
-0.218027000000007
 30
0.0
 40
0.1
100
AcDbArc
 50
21.02238799999812
 51
22.80227599999959
  0
ARC
  5
ED0
330
EB6
100
AcDbEntity
  8
BLOCKS
100
AcDbCircle
 10
0.0
 20
-0.1204020000000133
 30
0.0
 40
0.114575
100
AcDbArc
 50
189.2243800000007
 51
350.7756199999993
  0
ARC
  5
ED1
330
EB6
100
AcDbEntity
  8
BLOCKS
100
AcDbCircle
 10
0.0
 20
-0.1360929999999604
 30
0.0
 40
0.114575
100
AcDbArc
 50
189.2757970000029
 51
350.7242029999972
  0
ARC
  5
ED2
330
EB6
100
AcDbEntity
  8
BLOCKS
100
AcDbCircle
 10
-0.0034030000000485
 20
-0.1596409999999656
 30
0.0
 40
0.022871
100
AcDbArc
 50
16.02288900000318
 51
81.44280000000087
  0
ARC
  5
ED3
330
EB6
100
AcDbEntity
  8
BLOCKS
100
AcDbCircle
 10
0.0
 20
-0.2058879999999596
 30
0.0
 40
0.061377
100
AcDbArc
 50
75.58878099999929
 51
104.4112190000007
  0
ARC
  5
ED4
330
EB6
100
AcDbEntity
  8
BLOCKS
100
AcDbCircle
 10
0.0002379999999675
 20
-0.1252369999999706
 30
0.0
 40
0.148763
100
AcDbArc
 50
205.5647149999973
 51
333.1875089999978
  0
LINE
  5
ED5
330
EB6
100
AcDbEntity
  8
BLOCKS
100
AcDbLine
 10
0.1452219999999897
 20
-0.153663000000052
 30
0.0
 11
0.1625000000000227
 21
0.0
 31
0.0
  0
LINE
  5
ED6
330
EB6
100
AcDbEntity
  8
BLOCKS
100
AcDbLine
 10
0.1547520000000304
 20
0.0
 30
0.0
 11
0.1434940000000324
 21
-0.1544999999999851
 31
0.0
  0
LINE
  5
ED7
330
EB6
100
AcDbEntity
  8
BLOCKS
100
AcDbLine
 10
0.0599999999999454
 20
-0.1027900000000278
 30
0.0
 11
0.1350820000000112
 21
-0.1536690000000368
 31
0.0
  0
LINE
  5
ED8
330
EB6
100
AcDbEntity
  8
BLOCKS
100
AcDbLine
 10
-0.0599999999999454
 20
-0.1027900000000278
 30
0.0
 11
-0.1352789999999686
 21
-0.1533749999999833
 31
0.0
  0
LINE
  5
ED9
330
EB6
100
AcDbEntity
  8
BLOCKS
100
AcDbLine
 10
-0.1454430000000002
 20
-0.1516900000000311
 30
0.0
 11
-0.1625000000000227
 21
0.0
 31
0.0
  0
LINE
  5
EDA
330
EB6
100
AcDbEntity
  8
BLOCKS
100
AcDbLine
 10
-0.1547520000000304
 20
0.0
 30
0.0
 11
-0.1434829999999465
 21
-0.1535969999999912
 31
0.0
  0
LINE
  5
EDB
330
EB6
100
AcDbEntity
  8
BLOCKS
100
AcDbLine
 10
-0.1625000000000227
 20
0.0
 30
0.0
 11
0.1625000000000227
 21
0.0
 31
0.0
  0
ENDBLK
  5
EDD
330
EB6
100
AcDbEntity
  8
0
100
AcDbBlockEnd
  0
BLOCK
  5
EEE
330
EDF
100
AcDbEntity
  8
0
100
AcDbBlockBegin
  2
104500AL
 70
     0
 10
0.0
 20
0.0
 30
0.0
  3
104500AL
  1

  0
LINE
  5
EE0
330
EDF
100
AcDbEntity
  8
BLOCKS
100
AcDbLine
 10
0.0844409999999698
 20
0.8798669999999907
 30
0.0
 11
0.0998620000000301
 21
0.8591890000000153
 31
0.0
  0
ARC
  5
EE1
330
EDF
100
AcDbEntity
  8
BLOCKS
100
AcDbCircle
 10
0.0804329999999709
 20
0.8768780000000338
 30
0.0
 40
0.005
100
AcDbArc
 50
36.71392900000353
 51
80.15880999999804
  0
ARC
  5
EE2
330
EDF
100
AcDbEntity
  8
BLOCKS
100
AcDbCircle
 10
0.0918460000000323
 20
0.8532099999999905
 30
0.0
 40
0.01
100
AcDbArc
 50
318.2112119999985
 51
36.71392900000353
  0
ARC
  5
EE3
330
EDF
100
AcDbEntity
  8
BLOCKS
100
AcDbCircle
 10
0.1030299999999897
 20
0.843214999999987
 30
0.0
 40
0.005
100
AcDbArc
 50
138.2112119999985
 51
216.3125309999986
  0
LINE
  5
EE4
330
EDF
100
AcDbEntity
  8
BLOCKS
100
AcDbLine
 10
0.0
 20
0.8959049999999711
 30
0.0
 11
0.0812879999999723
 21
0.8818039999999887
 31
0.0
  0
CIRCLE
  5
EE5
330
EDF
100
AcDbEntity
  8
BLOCKS
100
AcDbCircle
 10
0.0430370000000266
 20
0.73071600000003
 30
0.0
 40
0.009451
  0
ARC
  5
EE6
330
EDF
100
AcDbEntity
  8
BLOCKS
100
AcDbCircle
 10
0.2631880000000137
 20
0.5999570000000182
 30
0.0
 40
0.01
100
AcDbArc
 50
298.7039690000026
 51
36.3125309999986
  0
LINE
  5
EE7
330
EDF
100
AcDbEntity
  8
BLOCKS
100
AcDbLine
 10
0.2712460000000192
 20
0.6058779999999621
 30
0.0
 11
0.2627770000000282
 21
0.6174019999999706
 31
0.0
  0
ARC
  5
EE8
330
EDF
100
AcDbEntity
  8
BLOCKS
100
AcDbCircle
 10
0.081525000000056
 20
0.405181999999968
 30
0.0
 40
0.04
100
AcDbArc
 50
281.8831589999987
 51
347.0806529999986
  0
LINE
  5
EE9
330
EDF
100
AcDbEntity
  8
BLOCKS
100
AcDbLine
 10
0.0
 20
0.3471510000000535
 30
0.0
 11
0.0897619999999506
 21
0.3660399999999981
 31
0.0
  0
ARC
  5
EEA
330
EDF
100
AcDbEntity
  8
BLOCKS
100
AcDbCircle
 10
0.4112569999999778
 20
0.3295460000000503
 30
0.0
 40
0.298296
100
AcDbArc
 50
150.0860969999992
 51
167.0806529999986
  0
ARC
  5
EEB
330
EDF
100
AcDbEntity
  8
BLOCKS
100
AcDbCircle
 10
0.4112569999999778
 20
0.3295460000000503
 30
0.0
 40
0.298296
100
AcDbArc
 50
118.7039690000025
 51
150.0860969999992
  0
LINE
  5
EEC
330
EDF
100
AcDbEntity
  8
BLOCKS
100
AcDbLine
 10
0.0
 20
0.8959049999999711
 30
0.0
 11
0.0
 21
0.3471510000000535
 31
0.0
  0
LINE
  5
EED
330
EDF
100
AcDbEntity
  8
BLOCKS
100
AcDbLine
 10
0.0990010000000439
 20
0.8402539999999595
 30
0.0
 11
0.2627770000000282
 21
0.6174019999999706
 31
0.0
  0
ENDBLK
  5
EEF
330
EDF
100
AcDbEntity
  8
0
100
AcDbBlockEnd
  0
BLOCK
  5
F26
330
EF1
100
AcDbEntity
  8
0
100
AcDbBlockBegin
  2
104500AF
 70
     0
 10
0.0
 20
0.0
 30
0.0
  3
104500AF
  1

  0
ARC
  5
EF2
330
EF1
100
AcDbEntity
  8
BLOCKS
100
AcDbCircle
 10
0.1347970000000487
 20
0.8695470000000113
 30
0.0
 40
0.02
100
AcDbArc
 50
3.812164000001853
 51
83.10878199999924
  0
ARC
  5
EF3
330
EF1
100
AcDbEntity
  8
BLOCKS
100
AcDbCircle
 10
0.13250000000005
 20
0.8677430000000185
 30
0.0
 40
0.01
100
AcDbArc
 50
0.0
 51
84.96865800000149
  0
CIRCLE
  5
EF4
330
EF1
100
AcDbEntity
  8
BLOCKS
100
AcDbCircle
 10
0.0974999999999682
 20
0.8328900000000203
 30
0.0
 40
0.002786
  0
LINE
  5
EF5
330
EF1
100
AcDbEntity
  8
BLOCKS
100
AcDbLine
 10
0.1319180000000415
 20
0.7631710000000567
 30
0.0
 11
0.1348910000000387
 21
0.7572249999999486
 31
0.0
  0
ARC
  5
EF6
330
EF1
100
AcDbEntity
  8
BLOCKS
100
AcDbCircle
 10
0.4258250000000317
 20
0.7667040000000043
 30
0.0
 40
0.315896
100
AcDbArc
 50
176.9791560000013
 51
182.6061799999985
  0
ARC
  5
EF7
330
EF1
100
AcDbEntity
  8
BLOCKS
100
AcDbCircle
 10
0.0229269999999815
 20
0.7795059999999694
 30
0.0
 40
0.01
100
AcDbArc
 50
50.43277899999858
 51
90.0
  0
LINE
  5
EF8
330
EF1
100
AcDbEntity
  8
BLOCKS
100
AcDbLine
 10
0.0292970000000423
 20
0.7872149999999465
 30
0.0
 11
0.0783860000000232
 21
0.7466510000000426
 31
0.0
  0
LINE
  5
EF9
330
EF1
100
AcDbEntity
  8
BLOCKS
100
AcDbLine
 10
0.0783860000000232
 20
0.7466510000000426
 30
0.0
 11
0.0823890000000347
 21
0.7388839999999846
 31
0.0
  0
CIRCLE
  5
EFA
330
EF1
100
AcDbEntity
  8
BLOCKS
100
AcDbCircle
 10
0.0843399999999974
 20
0.7751220000000103
 30
0.0
 40
0.002786
  0
CIRCLE
  5
EFB
330
EF1
100
AcDbEntity
  8
BLOCKS
100
AcDbCircle
 10
0.0557310000000371
 20
0.7879910000000337
 30
0.0
 40
0.002786
  0
CIRCLE
  5
EFC
330
EF1
100
AcDbEntity
  8
BLOCKS
100
AcDbCircle
 10
0.0769020000000182
 20
0.7596790000000056
 30
0.0
 40
0.002786
  0
CIRCLE
  5
EFD
330
EF1
100
AcDbEntity
  8
BLOCKS
100
AcDbCircle
 10
0.0234030000000303
 20
0.8002880000000232
 30
0.0
 40
0.002786
  0
ARC
  5
EFE
330
EF1
100
AcDbEntity
  8
BLOCKS
100
AcDbCircle
 10
1.591133000000013
 20
0.966587000000004
 30
0.0
 40
1.439565999999999
100
AcDbArc
 50
183.8121640000018
 51
187.0658749999993
  0
LINE
  5
EFF
330
EF1
100
AcDbEntity
  8
BLOCKS
100
AcDbLine
 10
0.0398519999999962
 20
0.8493859999999813
 30
0.0
 11
0.1319180000000415
 21
0.7631710000000567
 31
0.0
  0
LINE
  5
F00
330
EF1
100
AcDbEntity
  8
BLOCKS
100
AcDbLine
 10
0.1425000000000409
 20
0.7546240000000353
 30
0.0
 11
0.1425000000000409
 21
0.8677430000000185
 31
0.0
  0
ARC
  5
F01
330
EF1
100
AcDbEntity
  8
BLOCKS
100
AcDbCircle
 10
-0.13250000000005
 20
0.8677430000000185
 30
0.0
 40
0.01
100
AcDbArc
 50
95.03134199999854
 51
180.0
  0
CIRCLE
  5
F02
330
EF1
100
AcDbEntity
  8
BLOCKS
100
AcDbCircle
 10
-0.0974999999999682
 20
0.8328900000000203
 30
0.0
 40
0.00284
  0
ARC
  5
F03
330
EF1
100
AcDbEntity
  8
BLOCKS
100
AcDbCircle
 10
-0.0240850000000137
 20
-0.0464980000000424
 30
0.0
 40
0.9427109999999998
100
AcDbArc
 50
88.53599400000295
 51
96.89121800000075
  0
ARC
  5
F04
330
EF1
100
AcDbEntity
  8
BLOCKS
100
AcDbCircle
 10
-0.0167300000000523
 20
-0.5246449999999641
 30
0.0
 40
1.407192
100
AcDbArc
 50
89.31878900000176
 51
94.75489099999762
  0
ARC
  5
F05
330
EF1
100
AcDbEntity
  8
BLOCKS
100
AcDbCircle
 10
-0.0229269999999815
 20
0.7795059999999694
 30
0.0
 40
0.01
100
AcDbArc
 50
90.0
 51
129.5672210000014
  0
CIRCLE
  5
F06
330
EF1
100
AcDbEntity
  8
BLOCKS
100
AcDbCircle
 10
-0.0234030000000303
 20
0.8002880000000232
 30
0.0
 40
0.002786
  0
CIRCLE
  5
F07
330
EF1
100
AcDbEntity
  8
BLOCKS
100
AcDbCircle
 10
-0.0557310000000371
 20
0.7879910000000337
 30
0.0
 40
0.002786
  0
LINE
  5
F08
330
EF1
100
AcDbEntity
  8
BLOCKS
100
AcDbLine
 10
-0.1319180000000415
 20
0.7631710000000567
 30
0.0
 11
-0.1348910000000387
 21
0.7572249999999486
 31
0.0
  0
LINE
  5
F09
330
EF1
100
AcDbEntity
  8
BLOCKS
100
AcDbLine
 10
-0.0783860000000232
 20
0.7466510000000426
 30
0.0
 11
-0.0823890000000347
 21
0.7388839999999846
 31
0.0
  0
ARC
  5
F0A
330
EF1
100
AcDbEntity
  8
BLOCKS
100
AcDbCircle
 10
-0.4258250000000317
 20
0.7667040000000043
 30
0.0
 40
0.315896
100
AcDbArc
 50
357.3938200000015
 51
3.020843999998658
  0
CIRCLE
  5
F0B
330
EF1
100
AcDbEntity
  8
BLOCKS
100
AcDbCircle
 10
-0.0843399999999974
 20
0.7751220000000103
 30
0.0
 40
0.002786
  0
CIRCLE
  5
F0C
330
EF1
100
AcDbEntity
  8
BLOCKS
100
AcDbCircle
 10
-0.0769020000000182
 20
0.7596790000000056
 30
0.0
 40
0.002786
  0
LINE
  5
F0D
330
EF1
100
AcDbEntity
  8
BLOCKS
100
AcDbLine
 10
-0.0292970000000423
 20
0.7872149999999465
 30
0.0
 11
-0.0783860000000232
 21
0.7466510000000426
 31
0.0
  0
LINE
  5
F0E
330
EF1
100
AcDbEntity
  8
BLOCKS
100
AcDbLine
 10
-0.1425000000000409
 20
0.7546240000000353
 30
0.0
 11
-0.1425000000000409
 21
0.8677430000000185
 31
0.0
  0
LINE
  5
F0F
330
EF1
100
AcDbEntity
  8
BLOCKS
100
AcDbLine
 10
-0.0398519999999962
 20
0.8493859999999813
 30
0.0
 11
-0.1319180000000415
 21
0.7631710000000567
 31
0.0
  0
ARC
  5
F10
330
EF1
100
AcDbEntity
  8
BLOCKS
100
AcDbCircle
 10
0.0240850000000137
 20
-0.0464980000000424
 30
0.0
 40
0.9427109999999998
100
AcDbArc
 50
83.10878199999924
 51
91.46400599999703
  0
ARC
  5
F11
330
EF1
100
AcDbEntity
  8
BLOCKS
100
AcDbCircle
 10
0.0167300000000523
 20
-0.5246449999999641
 30
0.0
 40
1.407192
100
AcDbArc
 50
85.24510900000237
 51
90.68121099999821
  0
LINE
  5
F12
330
EF1
100
AcDbEntity
  8
BLOCKS
100
AcDbLine
 10
-0.1425000000000409
 20
0.8493859999999813
 30
0.0
 11
0.1425000000000409
 21
0.8493859999999813
 31
0.0
  0
LINE
  5
F13
330
EF1
100
AcDbEntity
  8
BLOCKS
100
AcDbLine
 10
0.0229269999999815
 20
0.7895059999999603
 30
0.0
 11
-0.0229269999999815
 21
0.7895059999999603
 31
0.0
  0
ARC
  5
F14
330
EF1
100
AcDbEntity
  8
BLOCKS
100
AcDbCircle
 10
-1.591133000000013
 20
0.966587000000004
 30
0.0
 40
1.439565999999999
100
AcDbArc
 50
352.9341250000007
 51
356.1878359999981
  0
ARC
  5
F15
330
EF1
100
AcDbEntity
  8
BLOCKS
100
AcDbCircle
 10
-0.1347970000000487
 20
0.8695470000000113
 30
0.0
 40
0.02
100
AcDbArc
 50
96.89121800000075
 51
176.1878359999981
  0
ARC
  5
F16
330
EF1
100
AcDbEntity
  8
BLOCKS
100
AcDbCircle
 10
0.0015120000000479
 20
0.7408030000000281
 30
0.0
 40
0.118019
100
AcDbArc
 50
233.112961
 51
269.2660999999968
  0
ARC
  5
F17
330
EF1
100
AcDbEntity
  8
BLOCKS
100
AcDbCircle
 10
-0.0132690000000366
 20
0.6935459999999694
 30
0.0
 40
0.10352
100
AcDbArc
 50
217.1189830000018
 51
277.3640989999998
  0
ARC
  5
F18
330
EF1
100
AcDbEntity
  8
BLOCKS
100
AcDbCircle
 10
-0.0015120000000479
 20
0.7408030000000281
 30
0.0
 40
0.118019
100
AcDbArc
 50
270.7339000000032
 51
306.8870389999999
  0
ARC
  5
F19
330
EF1
100
AcDbEntity
  8
BLOCKS
100
AcDbCircle
 10
0.0132690000000366
 20
0.6935459999999694
 30
0.0
 40
0.10352
100
AcDbArc
 50
262.6359010000002
 51
322.8810169999982
  0
ARC
  5
F1A
330
EF1
100
AcDbEntity
  8
BLOCKS
100
AcDbCircle
 10
0.0
 20
0.397448000000054
 30
0.0
 40
0.05
100
AcDbArc
 50
261.1297380000027
 51
278.8702619999972
  0
ARC
  5
F1B
330
EF1
100
AcDbEntity
  8
BLOCKS
100
AcDbCircle
 10
0.007520999999997
 20
0.4456380000000309
 30
0.0
 40
0.098774
100
AcDbArc
 50
211.9966559999965
 51
261.1297380000027
  0
ARC
  5
F1C
330
EF1
100
AcDbEntity
  8
BLOCKS
100
AcDbCircle
 10
-0.007520999999997
 20
0.4456380000000309
 30
0.0
 40
0.098774
100
AcDbArc
 50
278.8702619999972
 51
328.0033440000035
  0
LWPOLYLINE
  5
F1D
330
EF1
100
AcDbEntity
  8
BLOCKS
100
AcDbPolyline
 90
       16
 70
     1
 43
0.0
 10
0.0001069999999572
 20
0.3630600000000186
 42
0.02539
 10
-0.0101039999999557
 20
0.3625409999999647
 42
0.034928
 10
-0.0174309999999878
 20
0.3612729999999829
 42
0.073807
 10
-0.0237019999999575
 20
0.3587069999999812
 42
0.26466
 10
-0.024695999999949
 20
0.3569589999999607
 42
0.26466
 10
-0.0237019999999575
 20
0.3552110000000539
 42
0.073807
 10
-0.0174309999999878
 20
0.3526450000000523
 42
0.034928
 10
-0.0101039999999557
 20
0.3513769999999567
 42
0.02539
 10
0.0001069999999572
 20
0.3508580000000165
 42
0.02539
 10
0.0103189999999813
 20
0.3513769999999567
 42
0.034928
 10
0.0176460000000134
 20
0.3526450000000523
 42
0.073807
 10
0.0239169999999831
 20
0.3552110000000539
 42
0.26466
 10
0.0249109999999746
 20
0.3569589999999607
 42
0.26466
 10
0.0239169999999831
 20
0.3587069999999812
 42
0.073807
 10
0.0176460000000134
 20
0.3612729999999829
 42
0.034928
 10
0.0103189999999813
 20
0.3625409999999647
 42
0.02539
  0
ARC
  5
F1E
330
EF1
100
AcDbEntity
  8
BLOCKS
100
AcDbCircle
 10
-0.4053209999999581
 20
0.6941789999999628
 30
0.0
 40
0.567835
100
AcDbArc
 50
328.0033440000035
 51
359.6090429999998
  0
ARC
  5
F1F
330
EF1
100
AcDbEntity
  8
BLOCKS
100
AcDbCircle
 10
0.4053209999999581
 20
0.6941789999999628
 30
0.0
 40
0.567835
100
AcDbArc
 50
180.3909570000002
 51
211.9966559999965
  0
LINE
  5
F20
330
EF1
100
AcDbEntity
  8
BLOCKS
100
AcDbLine
 10
-0.1625000000000227
 20
0.6903049999999667
 30
0.0
 11
-0.1625000000000227
 21
0.7895059999999603
 31
0.0
  0
ARC
  5
F21
330
EF1
100
AcDbEntity
  8
BLOCKS
100
AcDbCircle
 10
-0.0306890000000522
 20
0.7459250000000566
 30
0.0
 40
0.141091
100
AcDbArc
 50
315.1440770000003
 51
2.606179999998529
  0
ARC
  5
F22
330
EF1
100
AcDbEntity
  8
BLOCKS
100
AcDbCircle
 10
0.0306890000000522
 20
0.7459250000000566
 30
0.0
 40
0.141091
100
AcDbArc
 50
177.3938200000014
 51
224.8559229999997
  0
ARC
  5
F23
330
EF1
100
AcDbEntity
  8
BLOCKS
100
AcDbCircle
 10
0.0904799999999568
 20
0.7720649999999978
 30
0.0
 40
0.233632
100
AcDbArc
 50
184.2811629999993
 51
217.1189830000018
  0
ARC
  5
F24
330
EF1
100
AcDbEntity
  8
BLOCKS
100
AcDbCircle
 10
-0.0904799999999568
 20
0.7720649999999978
 30
0.0
 40
0.233632
100
AcDbArc
 50
322.8810169999982
 51
355.7188370000007
  0
LINE
  5
F25
330
EF1
100
AcDbEntity
  8
BLOCKS
100
AcDbLine
 10
0.1625000000000227
 20
0.6903049999999667
 30
0.0
 11
0.1625000000000227
 21
0.7895059999999603
 31
0.0
  0
ENDBLK
  5
F27
330
EF1
100
AcDbEntity
  8
0
100
AcDbBlockEnd
  0
BLOCK
  5
F7F
330
F29
100
AcDbEntity
  8
0
100
AcDbBlockBegin
  2
104500CT
 70
     0
 10
0.0
 20
0.0
 30
0.0
  3
104500CT
  1

  0
ARC
  5
F2A
330
F29
100
AcDbEntity
  8
BLOCKS
100
AcDbCircle
 10
0.1030299999999897
 20
0.8432149999999865
 30
0.0
 40
0.005
100
AcDbArc
 50
138.2112119999985
 51
216.3125309999986
  0
LINE
  5
F2B
330
F29
100
AcDbEntity
  8
BLOCKS
100
AcDbLine
 10
0.0844409999999698
 20
0.8798669999999901
 30
0.0
 11
0.0998620000000301
 21
0.8591890000000148
 31
0.0
  0
ARC
  5
F2C
330
F29
100
AcDbEntity
  8
BLOCKS
100
AcDbCircle
 10
0.0782189999999901
 20
0.8547559999999521
 30
0.0
 40
0.01
100
AcDbArc
 50
310.3445570000017
 51
36.71392900000351
  0
ARC
  5
F2D
330
F29
100
AcDbEntity
  8
BLOCKS
100
AcDbCircle
 10
0.0719810000000507
 20
0.8631199999999807
 30
0.0
 40
0.01
100
AcDbArc
 50
36.71392900000351
 51
80.15880999999804
  0
LINE
  5
F2E
330
F29
100
AcDbEntity
  8
BLOCKS
100
AcDbLine
 10
0.079998000000046
 20
0.8690980000000081
 30
0.0
 11
0.0862349999999879
 21
0.8607339999999794
 31
0.0
  0
ARC
  5
F2F
330
F29
100
AcDbEntity
  8
BLOCKS
100
AcDbCircle
 10
0.0804329999999709
 20
0.8768780000000333
 30
0.0
 40
0.005
100
AcDbArc
 50
36.71392900000351
 51
80.15880999999804
  0
ARC
  5
F30
330
F29
100
AcDbEntity
  8
BLOCKS
100
AcDbCircle
 10
0.0918460000000323
 20
0.85320999999999
 30
0.0
 40
0.01
100
AcDbArc
 50
318.2112119999985
 51
36.71392900000351
  0
ARC
  5
F31
330
F29
100
AcDbEntity
  8
BLOCKS
100
AcDbCircle
 10
0.0199999999999818
 20
0.8299050000000534
 30
0.0
 40
0.005
100
AcDbArc
 50
0.0
 51
90.0
  0
ARC
  5
F32
330
F29
100
AcDbEntity
  8
BLOCKS
100
AcDbCircle
 10
0.0249999999999773
 20
0.8381339999999681
 30
0.0
 40
0.01
100
AcDbArc
 50
180.0
 51
198.836921999999
  0
LINE
  5
F33
330
F29
100
AcDbEntity
  8
BLOCKS
100
AcDbLine
 10
0.0
 20
0.818173999999999
 30
0.0
 11
0.0099999999999909
 21
0.818173999999999
 31
0.0
  0
LINE
  5
F34
330
F29
100
AcDbEntity
  8
BLOCKS
100
AcDbLine
 10
0.0
 20
0.8269050000000106
 30
0.0
 11
0.0049999999999955
 21
0.8329049999999824
 31
0.0
  0
LINE
  5
F35
330
F29
100
AcDbEntity
  8
BLOCKS
100
AcDbLine
 10
0.0
 20
0.8749050000000124
 30
0.0
 11
0.0049999999999955
 21
0.8689050000000406
 31
0.0
  0
LINE
  5
F36
330
F29
100
AcDbEntity
  8
BLOCKS
100
AcDbLine
 10
0.0049999999999955
 20
0.8349050000000488
 30
0.0
 11
0.0199999999999818
 21
0.8349050000000488
 31
0.0
  0
LINE
  5
F37
330
F29
100
AcDbEntity
  8
BLOCKS
100
AcDbLine
 10
0.0049999999999955
 20
0.8669049999999742
 30
0.0
 11
0.0149999999999864
 21
0.8669049999999742
 31
0.0
  0
ARC
  5
F38
330
F29
100
AcDbEntity
  8
BLOCKS
100
AcDbCircle
 10
0.0249999999999773
 20
0.8712699999999813
 30
0.0
 40
0.01
100
AcDbArc
 50
80.15880999999804
 51
180.0
  0
LINE
  5
F39
330
F29
100
AcDbEntity
  8
BLOCKS
100
AcDbLine
 10
0.0049999999999955
 20
0.8689050000000406
 30
0.0
 11
0.0049999999999955
 21
0.8329049999999824
 31
0.0
  0
LINE
  5
F3A
330
F29
100
AcDbEntity
  8
BLOCKS
100
AcDbLine
 10
0.0149999999999864
 20
0.8712699999999813
 30
0.0
 11
0.0149999999999864
 21
0.8381339999999681
 31
0.0
  0
LINE
  5
F3B
330
F29
100
AcDbEntity
  8
BLOCKS
100
AcDbLine
 10
0.0267089999999826
 20
0.8811230000000023
 30
0.0
 11
0.0736910000000535
 21
0.8729730000000017
 31
0.0
  0
LINE
  5
F3C
330
F29
100
AcDbEntity
  8
BLOCKS
100
AcDbLine
 10
0.0
 20
0.8959049999999706
 30
0.0
 11
0.0812879999999723
 21
0.8818039999999882
 31
0.0
  0
LINE
  5
F3D
330
F29
100
AcDbEntity
  8
BLOCKS
100
AcDbLine
 10
0.1427179999999453
 20
0.772324000000026
 30
0.0
 11
0.143701999999962
 21
0.7794290000000501
 31
0.0
  0
ARC
  5
F3E
330
F29
100
AcDbEntity
  8
BLOCKS
100
AcDbCircle
 10
0.1461550000000216
 20
0.7252240000000257
 30
0.0
 40
0.002
100
AcDbArc
 50
35.49302299999806
 51
125.4864949999989
  0
ARC
  5
F3F
330
F29
100
AcDbEntity
  8
BLOCKS
100
AcDbCircle
 10
0.1453400000000329
 20
0.7246430000000146
 30
0.0
 40
0.002
100
AcDbArc
 50
125.4864949999989
 51
215.4930229999981
  0
LINE
  5
F40
330
F29
100
AcDbEntity
  8
BLOCKS
100
AcDbLine
 10
0.1441790000000083
 20
0.7262719999999945
 30
0.0
 11
0.144993999999997
 21
0.7268520000000081
 31
0.0
  0
LWPOLYLINE
  5
F41
330
F29
100
AcDbEntity
  8
BLOCKS
100
AcDbPolyline
 90
       16
 70
     1
 43
0.0
 10
0.0736200000000054
 20
0.7885780000000296
 42
0.184967
 10
0.0737910000000284
 20
0.7881310000000213
 42
0.102086
 10
0.0744730000000118
 20
0.7876270000000432
 42
0.060935
 10
0.0753509999999551
 20
0.7873449999999594
 42
0.047242
 10
0.0765340000000379
 20
0.7872330000000148
 42
0.047242
 10
0.0777160000000095
 20
0.7873449999999594
 42
0.060935
 10
0.0785939999999528
 20
0.7876270000000432
 42
0.102086
 10
0.0792760000000499
 20
0.7881310000000213
 42
0.184967
 10
0.0794469999999592
 20
0.7885780000000296
 42
0.184967
 10
0.0792760000000499
 20
0.7890250000000379
 42
0.102086
 10
0.0785939999999528
 20
0.7895280000000185
 42
0.060935
 10
0.0777160000000095
 20
0.7898099999999886
 42
0.047242
 10
0.0765340000000379
 20
0.7899220000000469
 42
0.047242
 10
0.0753509999999551
 20
0.7898099999999886
 42
0.060935
 10
0.0744730000000118
 20
0.7895280000000185
 42
0.102086
 10
0.0737910000000284
 20
0.7890250000000379
 42
0.184967
  0
LWPOLYLINE
  5
F42
330
F29
100
AcDbEntity
  8
BLOCKS
100
AcDbPolyline
 90
       16
 70
     1
 43
0.0
 10
0.0367099999999709
 20
0.772295999999983
 42
0.142636
 10
0.036927999999989
 20
0.7715480000000526
 42
0.107171
 10
0.0376509999999826
 20
0.7708169999999655
 42
0.078577
 10
0.0386419999999816
 20
0.7703739999999471
 42
0.065934
 10
0.0399230000000444
 20
0.7702050000000327
 42
0.065934
 10
0.0412029999999959
 20
0.7703739999999471
 42
0.078577
 10
0.0421949999999924
 20
0.7708169999999655
 42
0.107171
 10
0.042917999999986
 20
0.7715480000000526
 42
0.142636
 10
0.0431360000000041
 20
0.772295999999983
 42
0.142636
 10
0.042917999999986
 20
0.7730440000000272
 42
0.107171
 10
0.0421949999999924
 20
0.7737750000000006
 42
0.078577
 10
0.0412029999999959
 20
0.774218000000019
 42
0.065934
 10
0.0399230000000444
 20
0.774387000000047
 42
0.065934
 10
0.0386419999999816
 20
0.774218000000019
 42
0.078577
 10
0.0376509999999826
 20
0.7737750000000006
 42
0.107171
 10
0.036927999999989
 20
0.7730440000000272
 42
0.142636
  0
LWPOLYLINE
  5
F43
330
F29
100
AcDbEntity
  8
BLOCKS
100
AcDbPolyline
 90
       16
 70
     1
 43
0.0
 10
0.0370090000000119
 20
0.7869349999999713
 42
0.162122
 10
0.0372330000000147
 20
0.7862619999999652
 42
0.106088
 10
0.0380370000000312
 20
0.7855620000000272
 42
0.070105
 10
0.0391069999999445
 20
0.7851530000000367
 42
0.056352
 10
0.0405210000000125
 20
0.7849929999999859
 42
0.056352
 10
0.0419339999999693
 20
0.7851530000000367
 42
0.070105
 10
0.0430039999999963
 20
0.7855620000000272
 42
0.106088
 10
0.0438080000000127
 20
0.7862619999999652
 42
0.162122
 10
0.0440320000000156
 20
0.7869349999999713
 42
0.162122
 10
0.0438080000000127
 20
0.78760699999998
 42
0.106088
 10
0.0430039999999963
 20
0.7883080000000291
 42
0.070105
 10
0.0419339999999693
 20
0.7887170000000197
 42
0.056352
 10
0.0405210000000125
 20
0.7888769999999568
 42
0.056352
 10
0.0391069999999445
 20
0.7887170000000197
 42
0.070105
 10
0.0380370000000312
 20
0.7883080000000291
 42
0.106088
 10
0.0372330000000147
 20
0.78760699999998
 42
0.162122
  0
ARC
  5
F44
330
F29
100
AcDbEntity
  8
BLOCKS
100
AcDbCircle
 10
0.0750000000000455
 20
0.7551220000000285
 30
0.0
 40
0.06
100
AcDbArc
 50
180.0
 51
192.8021849999977
  0
ARC
  5
F45
330
F29
100
AcDbEntity
  8
BLOCKS
100
AcDbCircle
 10
0.0750000000000455
 20
0.7551220000000285
 30
0.0
 40
0.05
100
AcDbArc
 50
180.0
 51
192.8021849999977
  0
ARC
  5
F46
330
F29
100
AcDbEntity
  8
BLOCKS
100
AcDbCircle
 10
0.0449999999999591
 20
0.7740579999999682
 30
0.0
 40
0.02
100
AcDbArc
 50
130.3445570000016
 51
180.0
  0
ARC
  5
F47
330
F29
100
AcDbEntity
  8
BLOCKS
100
AcDbCircle
 10
0.0299999999999727
 20
0.8072389999999813
 30
0.0
 40
0.005
100
AcDbArc
 50
180.0
 51
310.3445570000017
  0
LINE
  5
F48
330
F29
100
AcDbEntity
  8
BLOCKS
100
AcDbLine
 10
0.0249999999999773
 20
0.7740579999999682
 30
0.0
 11
0.0249999999999773
 21
0.7551220000000285
 31
0.0
  0
LINE
  5
F49
330
F29
100
AcDbEntity
  8
BLOCKS
100
AcDbLine
 10
0.0149999999999864
 20
0.8131740000000036
 30
0.0
 11
0.0149999999999864
 21
0.7560620000000427
 31
0.0
  0
LINE
  5
F4A
330
F29
100
AcDbEntity
  8
BLOCKS
100
AcDbLine
 10
0.0320520000000215
 20
0.7893010000000232
 30
0.0
 11
0.0989859999999681
 21
0.8461539999999558
 31
0.0
  0
ARC
  5
F4B
330
F29
100
AcDbEntity
  8
BLOCKS
100
AcDbCircle
 10
0.0099999999999909
 20
0.8131740000000036
 30
0.0
 40
0.005
100
AcDbArc
 50
0.0
 51
90.0
  0
LINE
  5
F4C
330
F29
100
AcDbEntity
  8
BLOCKS
100
AcDbLine
 10
0.0249999999999773
 20
0.8299050000000534
 30
0.0
 11
0.0249999999999773
 21
0.8072389999999813
 31
0.0
  0
LINE
  5
F4D
330
F29
100
AcDbEntity
  8
BLOCKS
100
AcDbLine
 10
0.0332369999999855
 20
0.8034280000000535
 30
0.0
 11
0.0846930000000157
 21
0.8471339999999827
 31
0.0
  0
ARC
  5
F4E
330
F29
100
AcDbEntity
  8
BLOCKS
100
AcDbCircle
 10
0.254224000000022
 20
0.5995779999999514
 30
0.0
 40
0.005
100
AcDbArc
 50
30.94275900000078
 51
39.80557100000272
  0
ARC
  5
F4F
330
F29
100
AcDbEntity
  8
BLOCKS
100
AcDbCircle
 10
0.2538190000000213
 20
0.6003789999999754
 30
0.0
 40
0.005016
100
AcDbArc
 50
307.5637109999998
 51
112.7762300000006
  0
ARC
  5
F50
330
F29
100
AcDbEntity
  8
BLOCKS
100
AcDbCircle
 10
0.2631880000000137
 20
0.5999570000000177
 30
0.0
 40
0.01
100
AcDbArc
 50
298.7039690000026
 51
36.31253099999862
  0
ARC
  5
F51
330
F29
100
AcDbEntity
  8
BLOCKS
100
AcDbCircle
 10
0.2583759999999984
 20
0.6150290000000496
 30
0.0
 40
0.004968
100
AcDbArc
 50
40.97815400000006
 51
118.046676999997
  0
ARC
  5
F52
330
F29
100
AcDbEntity
  8
BLOCKS
100
AcDbCircle
 10
0.2546409999999923
 20
0.5990759999999682
 30
0.0
 40
0.005
100
AcDbArc
 50
39.80557100000272
 51
43.54571100000048
  0
ARC
  5
F53
330
F29
100
AcDbEntity
  8
BLOCKS
100
AcDbCircle
 10
0.238695000000007
 20
0.6006210000000465
 30
0.0
 40
0.001
100
AcDbArc
 50
215.4930229999981
 51
292.5195729999976
  0
LINE
  5
F54
330
F29
100
AcDbEntity
  8
BLOCKS
100
AcDbLine
 10
0.2390779999999495
 20
0.599696999999992
 30
0.0
 11
0.2519190000000435
 21
0.6050209999999652
 31
0.0
  0
LINE
  5
F55
330
F29
100
AcDbEntity
  8
BLOCKS
100
AcDbLine
 10
0.234976999999958
 20
0.6057570000000397
 30
0.0
 11
0.2560399999999845
 21
0.6194130000000087
 31
0.0
  0
LINE
  5
F56
330
F29
100
AcDbEntity
  8
BLOCKS
100
AcDbLine
 10
0.2712460000000192
 20
0.6058779999999615
 30
0.0
 11
0.2627770000000282
 21
0.6174019999999701
 31
0.0
  0
ARC
  5
F57
330
F29
100
AcDbEntity
  8
BLOCKS
100
AcDbCircle
 10
0.1825529999999844
 20
0.6087330000000293
 30
0.0
 40
0.035
100
AcDbArc
 50
330.0118789999964
 51
35.48649499999893
  0
ARC
  5
F58
330
F29
100
AcDbEntity
  8
BLOCKS
100
AcDbCircle
 10
0.2344329999999672
 20
0.6065969999999652
 30
0.0
 40
0.001
100
AcDbArc
 50
215.4930229999981
 51
302.956505
  0
ARC
  5
F59
330
F29
100
AcDbEntity
  8
BLOCKS
100
AcDbCircle
 10
0.0605269999999791
 20
0.6933279999999514
 30
0.0
 40
0.183773
100
AcDbArc
 50
302.645716000001
 51
322.5535120000038
  0
ARC
  5
F5A
330
F29
100
AcDbEntity
  8
BLOCKS
100
AcDbCircle
 10
0.135627999999997
 20
0.6358119999999872
 30
0.0
 40
0.089178
100
AcDbArc
 50
322.5535120000038
 51
330.0118789999964
  0
ARC
  5
F5B
330
F29
100
AcDbEntity
  8
BLOCKS
100
AcDbCircle
 10
0.0984260000000177
 20
0.5174449999999525
 30
0.0
 40
0.047583
100
AcDbArc
 50
321.9946370000037
 51
353.3470200000016
  0
ARC
  5
F5C
330
F29
100
AcDbEntity
  8
BLOCKS
100
AcDbCircle
 10
0.1338640000000169
 20
0.5133110000000443
 30
0.0
 40
0.011905
100
AcDbArc
 50
353.3470200000016
 51
113.8480580000035
  0
ARC
  5
F5D
330
F29
100
AcDbEntity
  8
BLOCKS
100
AcDbCircle
 10
0.1236740000000509
 20
0.4721510000000535
 30
0.0
 40
0.02
100
AcDbArc
 50
58.4749009999993
 51
90.0
  0
ARC
  5
F5E
330
F29
100
AcDbEntity
  8
BLOCKS
100
AcDbCircle
 10
0.1422280000000455
 20
0.4900989999999866
 30
0.0
 40
0.005
100
AcDbArc
 50
238.4749009999993
 51
329.1719290000012
  0
LINE
  5
F5F
330
F29
100
AcDbEntity
  8
BLOCKS
100
AcDbLine
 10
0.1396130000000539
 20
0.4858369999999468
 30
0.0
 11
0.1341320000000223
 21
0.4891989999999851
 31
0.0
  0
ARC
  5
F60
330
F29
100
AcDbEntity
  8
BLOCKS
100
AcDbCircle
 10
0.124953000000005
 20
0.5373230000000149
 30
0.0
 40
0.013748
100
AcDbArc
 50
287.3409449999987
 51
38.41775900000271
  0
ARC
  5
F61
330
F29
100
AcDbEntity
  8
BLOCKS
100
AcDbCircle
 10
0.1138680000000249
 20
0.5421509999999899
 30
0.0
 40
0.01
100
AcDbArc
 50
270.0
 51
34.90056300000314
  0
ARC
  5
F62
330
F29
100
AcDbEntity
  8
BLOCKS
100
AcDbCircle
 10
-1.66895999999997
 20
-0.4265209999999798
 30
0.0
 40
2.038928999999999
100
AcDbArc
 50
28.548014000001
 51
29.12867499999916
  0
ARC
  5
F63
330
F29
100
AcDbEntity
  8
BLOCKS
100
AcDbCircle
 10
-2.19685000000004
 20
-0.8426980000000412
 30
0.0
 40
2.714592
100
AcDbArc
 50
30.76500800000182
 51
31.40471200000045
  0
LINE
  5
F64
330
F29
100
AcDbEntity
  8
BLOCKS
100
AcDbLine
 10
0.0870740000000296
 20
0.4821510000000444
 30
0.0
 11
0.0870740000000296
 21
0.532150999999999
 31
0.0
  0
LINE
  5
F65
330
F29
100
AcDbEntity
  8
BLOCKS
100
AcDbLine
 10
0.0870740000000296
 20
0.4921510000000353
 30
0.0
 11
0.1236740000000509
 21
0.4921510000000353
 31
0.0
  0
LINE
  5
F66
330
F29
100
AcDbEntity
  8
BLOCKS
100
AcDbLine
 10
0.0870740000000296
 20
0.4821510000000444
 30
0.0
 11
0.1187079999999696
 21
0.4821510000000444
 31
0.0
  0
LINE
  5
F67
330
F29
100
AcDbEntity
  8
BLOCKS
100
AcDbLine
 10
0.0870740000000296
 20
0.532150999999999
 30
0.0
 11
0.1138680000000249
 21
0.532150999999999
 31
0.0
  0
LINE
  5
F68
330
F29
100
AcDbEntity
  8
BLOCKS
100
AcDbLine
 10
0.0870740000000296
 20
0.5221510000000081
 30
0.0
 11
0.1165059999999585
 21
0.5221510000000081
 31
0.0
  0
ARC
  5
F69
330
F29
100
AcDbEntity
  8
BLOCKS
100
AcDbCircle
 10
2.757604000000014
 20
2.320021999999994
 30
0.0
 40
3.174170999999998
100
AcDbArc
 50
211.2699059999982
 51
213.5455950000014
  0
ARC
  5
F6A
330
F29
100
AcDbEntity
  8
BLOCKS
100
AcDbCircle
 10
3.053691999999955
 20
2.503873999999996
 30
0.0
 40
3.512681
100
AcDbArc
 50
211.3264519999983
 51
213.3685379999974
  0
ARC
  5
F6B
330
F29
100
AcDbEntity
  8
BLOCKS
100
AcDbCircle
 10
0.4112569999999778
 20
0.3295460000000503
 30
0.0
 40
0.3082960000000001
100
AcDbArc
 50
154.8093559999989
 51
166.0240999999982
  0
LINE
  5
F6C
330
F29
100
AcDbEntity
  8
BLOCKS
100
AcDbLine
 10
0.0777960000000348
 20
0.3737409999999954
 30
0.0
 11
0.0798549999999523
 21
0.3639550000000327
 31
0.0
  0
ARC
  5
F6D
330
F29
100
AcDbEntity
  8
BLOCKS
100
AcDbCircle
 10
0.0732719999999745
 20
0.4136650000000373
 30
0.0
 40
0.04
100
AcDbArc
 50
281.8831589999987
 51
346.0240999999982
  0
ARC
  5
F6E
330
F29
100
AcDbEntity
  8
BLOCKS
100
AcDbCircle
 10
0.081525000000056
 20
0.405181999999968
 30
0.0
 40
0.04
100
AcDbArc
 50
281.8831589999987
 51
347.0806529999986
  0
LINE
  5
F6F
330
F29
100
AcDbEntity
  8
BLOCKS
100
AcDbLine
 10
0.0220180000000028
 20
0.3620029999999588
 30
0.0
 11
0.0240770000000339
 21
0.3522179999999935
 31
0.0
  0
LINE
  5
F70
330
F29
100
AcDbEntity
  8
BLOCKS
100
AcDbLine
 10
0.0
 20
0.3573699999999462
 30
0.0
 11
0.0815089999999828
 21
0.3745219999999563
 31
0.0
  0
LINE
  5
F71
330
F29
100
AcDbEntity
  8
BLOCKS
100
AcDbLine
 10
0.0
 20
0.3471510000000535
 30
0.0
 11
0.0897619999999506
 21
0.3660399999999981
 31
0.0
  0
ARC
  5
F72
330
F29
100
AcDbEntity
  8
BLOCKS
100
AcDbCircle
 10
0.1187079999999696
 20
0.4671509999999444
 30
0.0
 40
0.015
100
AcDbArc
 50
334.8093559999989
 51
90.0
  0
ARC
  5
F73
330
F29
100
AcDbEntity
  8
BLOCKS
100
AcDbCircle
 10
0.4112569999999778
 20
0.3295460000000503
 30
0.0
 40
0.298296
100
AcDbArc
 50
150.0860969999992
 51
167.0806529999985
  0
ARC
  5
F74
330
F29
100
AcDbEntity
  8
BLOCKS
100
AcDbCircle
 10
0.1092350000000124
 20
0.6061170000000402
 30
0.0
 40
0.08428
100
AcDbArc
 50
274.949130999999
 51
306.7496050000023
  0
ARC
  5
F75
330
F29
100
AcDbEntity
  8
BLOCKS
100
AcDbCircle
 10
0.4112569999999778
 20
0.3295460000000503
 30
0.0
 40
0.3082960000000001
100
AcDbArc
 50
120.0500140000007
 51
149.1719290000012
  0
ARC
  5
F76
330
F29
100
AcDbEntity
  8
BLOCKS
100
AcDbCircle
 10
0.1518330000000105
 20
0.5568610000000263
 30
0.0
 40
0.019786
100
AcDbArc
 50
221.542635999998
 51
294.9755739999958
  0
ARC
  5
F77
330
F29
100
AcDbEntity
  8
BLOCKS
100
AcDbCircle
 10
0.4112569999999778
 20
0.3295460000000503
 30
0.0
 40
0.298296
100
AcDbArc
 50
118.7039690000025
 51
150.0860969999992
  0
LINE
  5
F78
330
F29
100
AcDbEntity
  8
BLOCKS
100
AcDbLine
 10
0.2553990000000113
 20
0.6189980000000333
 30
0.0
 11
0.1427179999999453
 21
0.772324000000026
 31
0.0
  0
LINE
  5
F79
330
F29
100
AcDbEntity
  8
BLOCKS
100
AcDbLine
 10
0.147783000000004
 20
0.7263850000000503
 30
0.0
 11
0.2378800000000183
 21
0.6000400000000355
 31
0.0
  0
LINE
  5
F7A
330
F29
100
AcDbEntity
  8
BLOCKS
100
AcDbLine
 10
0.1437120000000505
 20
0.72348199999999
 30
0.0
 11
0.2110519999999951
 21
0.6290510000000041
 31
0.0
  0
ARC
  5
F7B
330
F29
100
AcDbEntity
  8
BLOCKS
100
AcDbCircle
 10
0.2448960000000397
 20
0.7937279999999874
 30
0.0
 40
0.234227
100
AcDbArc
 50
192.8021849999977
 51
211.1967449999969
  0
ARC
  5
F7C
330
F29
100
AcDbEntity
  8
BLOCKS
100
AcDbCircle
 10
0.2448960000000397
 20
0.7937279999999874
 30
0.0
 40
0.224227
100
AcDbArc
 50
192.8021849999977
 51
211.1967449999969
  0
LINE
  5
F7D
330
F29
100
AcDbEntity
  8
BLOCKS
100
AcDbLine
 10
0.0
 20
0.8959049999999706
 30
0.0
 11
0.0
 21
0.3471510000000535
 31
0.0
  0
LINE
  5
F7E
330
F29
100
AcDbEntity
  8
BLOCKS
100
AcDbLine
 10
0.0990010000000439
 20
0.8402539999999589
 30
0.0
 11
0.2627770000000282
 21
0.6174019999999701
 31
0.0
  0
ENDBLK
  5
F80
330
F29
100
AcDbEntity
  8
0
100
AcDbBlockEnd
  0
ENDSEC
  0
SECTION
  2
ENTITIES
  0
INSERT
  5
EDE
330
1F
100
AcDbEntity
  8
cotas
100
AcDbBlockReference
  2
104500PL
 10
21.68107477444045
 20
154.2996719149589
 30
0.0
  0
INSERT
  5
EF0
330
1F
100
AcDbEntity
  8
cotas
100
AcDbBlockReference
  2
104500AL
 10
22.23604284737908
 20
153.5732248817157
 30
0.0
  0
INSERT
  5
F28
330
1F
100
AcDbEntity
  8
cotas
100
AcDbBlockReference
  2
104500AF
 10
22.98244358945133
 20
153.5729278817157
 30
0.0
  0
INSERT
  5
F81
330
1F
100
AcDbEntity
  8
cotas
100
AcDbBlockReference
  2
104500CT
 10
23.51944658825677
 20
153.5732248817157
 30
0.0
  0
ENDSEC
  0
SECTION
  2
OBJECTS
  0
DICTIONARY
  5
C
330
0
100
AcDbDictionary
281
     1
  3
ACAD_COLOR
350
BA9
  3
ACAD_GROUP
350
D
  3
ACAD_LAYOUT
350
1A
  3
ACAD_MATERIAL
350
BA8
  3
ACAD_MLINESTYLE
350
17
  3
ACAD_PLOTSETTINGS
350
19
  3
ACAD_PLOTSTYLENAME
350
E
  3
ACAD_TABLESTYLE
350
BAA
  3
ACDBHEADERROUNDTRIPXREC
350
F94
  3
AcDbVariableDictionary
350
3D
  3
ASE_INDEX_DICTIONARY
350
D25
  0
DICTIONARY
  5
BA9
102
{ACAD_REACTORS
330
C
102
}
330
C
100
AcDbDictionary
281
     1
  0
DICTIONARY
  5
D
102
{ACAD_REACTORS
330
C
102
}
330
C
100
AcDbDictionary
281
     1
  0
DICTIONARY
  5
1A
102
{ACAD_REACTORS
330
C
102
}
330
C
100
AcDbDictionary
281
     1
  3
Layout1
350
1E
  3
Layout2
350
26
  3
Model
350
22
  0
DICTIONARY
  5
BA8
102
{ACAD_REACTORS
330
C
102
}
330
C
100
AcDbDictionary
281
     1
  0
DICTIONARY
  5
17
102
{ACAD_REACTORS
330
C
102
}
330
C
100
AcDbDictionary
281
     1
  3
Standard
350
18
  0
DICTIONARY
  5
19
102
{ACAD_REACTORS
330
C
102
}
330
C
100
AcDbDictionary
281
     1
  0
ACDBDICTIONARYWDFLT
  5
E
102
{ACAD_REACTORS
330
C
102
}
330
C
100
AcDbDictionary
281
     1
  3
Normal
350
F
100
AcDbDictionaryWithDefault
340
F
  0
DICTIONARY
  5
BAA
102
{ACAD_REACTORS
330
C
102
}
330
C
100
AcDbDictionary
281
     1
  3
Standard
350
BAB
  0
DICTIONARY
  5
F94
102
{ACAD_REACTORS
330
C
102
}
330
C
100
AcDbDictionary
281
     1
  0
DICTIONARY
  5
3D
102
{ACAD_REACTORS
330
C
102
}
330
C
100
AcDbDictionary
281
     1
  3
CTABLESTYLE
350
F83
  3
DIMASSOC
350
3F
  3
HIDETEXT
350
3E
  3
PROJECTNAME
350
F8C
  0
DICTIONARY
  5
D25
102
{ACAD_REACTORS
330
C
102
}
330
C
100
AcDbDictionary
281
     1
  3
ASEBlockHierarchyIndexRecord
350
D26
1001
DCO15
1040
1531461808.171
  0
LAYOUT
  5
1E
102
{ACAD_XDICTIONARY
360
F95
102
}
102
{ACAD_REACTORS
330
1A
102
}
330
1A
100
AcDbPlotSettings
  1

  2
Ploter HP500
  4

  6

 40
0.0
 41
0.0
 42
0.0
 43
0.0
 44
0.0
 45
0.0
 46
0.0
 47
0.0
 48
0.0
 49
0.0
140
0.0
141
0.0
142
1.0
143
1.0
 70
   688
 72
     0
 73
     0
 74
     5
  7
monochrome.ctb
 75
    16
147
1.0
148
0.0
149
0.0
100
AcDbLayout
  1
Layout1
 70
     1
 71
     1
 10
0.0
 20
0.0
 11
420.0
 21
297.0
 12
0.0
 22
0.0
 32
0.0
 14
1.000000000000000E+20
 24
1.000000000000000E+20
 34
1.000000000000000E+20
 15
-1.000000000000000E+20
 25
-1.000000000000000E+20
 35
-1.000000000000000E+20
146
0.0
 13
0.0
 23
0.0
 33
0.0
 16
1.0
 26
0.0
 36
0.0
 17
0.0
 27
1.0
 37
0.0
 76
     0
330
1B
  0
LAYOUT
  5
26
102
{ACAD_XDICTIONARY
360
F99
102
}
102
{ACAD_REACTORS
330
1A
102
}
330
1A
100
AcDbPlotSettings
  1

  2
Ploter HP500
  4

  6

 40
0.0
 41
0.0
 42
0.0
 43
0.0
 44
0.0
 45
0.0
 46
0.0
 47
0.0
 48
0.0
 49
0.0
140
0.0
141
0.0
142
1.0
143
1.0
 70
   688
 72
     0
 73
     0
 74
     5
  7
monochrome.ctb
 75
    16
147
1.0
148
0.0
149
0.0
100
AcDbLayout
  1
Layout2
 70
     1
 71
     2
 10
0.0
 20
0.0
 11
12.0
 21
9.0
 12
0.0
 22
0.0
 32
0.0
 14
0.0
 24
0.0
 34
0.0
 15
0.0
 25
0.0
 35
0.0
146
0.0
 13
0.0
 23
0.0
 33
0.0
 16
1.0
 26
0.0
 36
0.0
 17
0.0
 27
1.0
 37
0.0
 76
     0
330
23
  0
LAYOUT
  5
22
102
{ACAD_XDICTIONARY
360
F97
102
}
102
{ACAD_REACTORS
330
1A
102
}
330
1A
100
AcDbPlotSettings
  1

  2
Ploter HP500
  4
User268
  6

 40
4.995333194732666
 41
16.97565841674804
 42
4.995330810546875
 43
16.97567749023437
 44
209.9733276367187
 45
296.9259948730469
 46
0.0
 47
0.0
 48
0.0
 49
0.0
140
0.0
141
0.0
142
1.0
143
1.0
 70
 11952
 72
     1
 73
     1
 74
     0
  7

 75
     0
147
1.0
148
-427.5957866592534
149
7.362384574453926
100
AcDbLayout
  1
Model
 70
     1
 71
     0
 10
0.0
 20
0.0
 11
12.0
 21
9.0
 12
0.0
 22
0.0
 32
0.0
 14
0.0
 24
0.0
 34
0.0
 15
0.0
 25
0.0
 35
0.0
146
0.0
 13
0.0
 23
0.0
 33
0.0
 16
1.0
 26
0.0
 36
0.0
 17
0.0
 27
1.0
 37
0.0
 76
     0
330
1F
  0
MLINESTYLE
  5
18
102
{ACAD_REACTORS
330
17
102
}
330
17
100
AcDbMlineStyle
  2
STANDARD
 70
     0
  3

 62
   256
 51
90.0
 52
90.0
 71
     2
 49
0.5
 62
   256
  6
BYLAYER
 49
-0.5
 62
   256
  6
BYLAYER
  0
ACDBPLACEHOLDER
  5
F
102
{ACAD_REACTORS
330
E
102
}
330
E
  0
TABLESTYLE
  5
BAB
102
{ACAD_REACTORS
330
BAA
102
}
330
BAA
100
AcDbTableStyle
  3
Standard
 70
     0
 71
     0
 40
1.5
 41
1.5
280
     0
281
     0
  7
Standard
140
4.5
170
     2
 62
     0
 63
     7
283
     0
274
    -2
284
     1
 64
     0
275
    -2
285
     1
 65
     0
276
    -2
286
     1
 66
     0
277
    -2
287
     1
 67
     0
278
    -2
288
     1
 68
     0
279
    -2
289
     1
 69
     0
  7
Standard
140
6.0
170
     5
 62
     0
 63
     7
283
     0
274
    -2
284
     1
 64
     0
275
    -2
285
     1
 65
     0
276
    -2
286
     1
 66
     0
277
    -2
287
     1
 67
     0
278
    -2
288
     1
 68
     0
279
    -2
289
     1
 69
     0
  7
Standard
140
4.5
170
     5
 62
     0
 63
     7
283
     0
274
    -2
284
     1
 64
     0
275
    -2
285
     1
 65
     0
276
    -2
286
     1
 66
     0
277
    -2
287
     1
 67
     0
278
    -2
288
     1
 68
     0
279
    -2
289
     1
 69
     0
  0
DICTIONARYVAR
  5
F83
102
{ACAD_REACTORS
330
3D
102
}
330
3D
100
DictionaryVariables
280
     0
  1
STANDARD
  0
DICTIONARYVAR
  5
3F
102
{ACAD_REACTORS
330
3D
102
}
330
3D
100
DictionaryVariables
280
     0
  1
2
  0
DICTIONARYVAR
  5
3E
102
{ACAD_REACTORS
330
3D
102
}
330
3D
100
DictionaryVariables
280
     0
  1
1
  0
DICTIONARYVAR
  5
F8C
102
{ACAD_REACTORS
330
3D
102
}
330
3D
100
DictionaryVariables
280
     0
  1

  0
XRECORD
  5
D26
102
{ACAD_REACTORS
330
D25
102
}
330
D25
100
AcDbXrecord
280
     1
330
EDE
330
EF0
330
F28
330
F81
  0
DICTIONARY
  5
F95
330
1E
100
AcDbDictionary
280
     1
281
     1
  3
ACAD_XREC_ROUNDTRIP
360
F96
  0
DICTIONARY
  5
F99
330
26
100
AcDbDictionary
280
     1
281
     1
  3
ACAD_XREC_ROUNDTRIP
360
F9A
  0
DICTIONARY
  5
F97
330
22
100
AcDbDictionary
280
     1
281
     1
  3
ACAD_XREC_ROUNDTRIP
360
F98
  0
XRECORD
  5
F96
102
{ACAD_REACTORS
330
F95
102
}
330
F95
100
AcDbXrecord
280
     1
102
SHADEPLOT
 70
     0
102
SHADEPLOTRESLEVEL
 70
     2
102
SHADEPLOTCUSTOMDPI
 70
   300
  0
XRECORD
  5
F9A
102
{ACAD_REACTORS
330
F99
102
}
330
F99
100
AcDbXrecord
280
     1
102
SHADEPLOT
 70
     0
102
SHADEPLOTRESLEVEL
 70
     2
102
SHADEPLOTCUSTOMDPI
 70
   300
  0
XRECORD
  5
F98
102
{ACAD_REACTORS
330
F97
102
}
330
F97
100
AcDbXrecord
280
     1
102
SHADEPLOT
 70
     0
102
SHADEPLOTRESLEVEL
 70
     2
102
SHADEPLOTCUSTOMDPI
 70
   300
  0
ENDSEC
  0
EOF
